Broken Social Scene - Stars And Sons tab

Song name: Stars and sons
Band name: Broken Social Scene
Album name: You Forgot it in People
Email: Soccer_player101@hotmail.com
Name: Dylan Wagner

I looked on the internet for this guitar tab but I didn't see a guitar part for Stars 
Sons, just bass lines for the song so here you go. 5 stars for first Stars and Sons guitar 
tab!! :P


Tuning:EADGBe

!IMPORTANT!: If you want to play the bass line on the EADGBe guitar tune it down to DADGBe!!!

Intro:
Guitar 1(0:08)
e|------------------------------------------------------------------------|
B|----Repeat 4 times for max damage---------------------------------------|
G|------------------------------------------------------------------------|
D|----2---2---2---2---0---0---0---0---------------------------------------|
A|--3---3---3---3---3---3---3---3-----------------------------------------|
E|------------------------------------------------------------------------|

Guitar 2 (0:08)
e|------------------------------------------------------------------------|
B|----5---5---5-------3---3---3---3---------------------------------------|
G|--5---5---5---5---5---5---5---5-----------------------------------------|
D|------------------------------------------------------------------------|
A|------------------------------------------------------------------------|
D|------------------------------------------------------------------------|

Verse

Guitar 1 and 2: (0:25)        Guitar 2 plays this on the last chord (F)
e|-------------------------------------------------------------vv---------|
B|----------------1-1-----1-----3--5-5--5-5-5--6-6-6-6-6-6-6---10---------|
G|--5-5--5-5-5-5--2-2-2-----2------5-5--5-5-5--5-5-5-5-5-5-5---10---------|
D|--5-5--5-7-7-5--3-3---3-----3----5-5--5-5-5--7-7-7-7-7-7-7---10---------|
A|--7-7--7-7-7-7----------------------------------------------------------|
E|------------------------Repeat when necessary---------------------------|

Thats how they play the riff most of the time live.
OR
play this variation of the main riff if you don't like moving around the whole guitar neck.

Guitar 1 and 2: (0:25)       Guitar 2 plays this on the last chord (F)
e|-------------------------------------------------------------vv---------|
B|-1-1--1-1-1-1---1-1-----1-----3--5-5--5-5-5--6-6-6-6-6-6-6---10---------|
G|-0-0--0-2-2-0---2-2-2-----2------5-5--5-5-5--5-5-5-5-5-5-5---10---------|
D|-2-2--2-2-2-2---3-3---3-----3----5-5--5-5-5--7-7-7-7-7-7-7---10---------|
A|------------------------------------------------------------------------|
E|------------------------Repeat when necessary---------------------------|


Bass (Remember DADGBe!!) (0:25)
e|------------------------------------------------------------------------|
B|------------------------------------------------------------------------|
G|------------------------Repeat when necessary---------------------------|
D|-----------------------------------------------------------2---2-5------|
A|-----------------0-0-0-0-0-0---0-3-3-3-3-3-0-2-3-5-2-3-5-5---5----------|
D|-5-5-5-5-5-0-2-5-------------5------------------------------------------|

Chorus:
Guitar 1 and 2: (1:27)        Guitar 2 plays this on the last chord (F)
e|-------------------------------------------------------------vv---------|
B|----------------1-1-----1-----3--5-5--5-5-5--6-6-6-6-6-6-6--------------|
G|--5-5--5-5-5-5--2-2-2-----2------5-5--5-5-5--5-5-5-5-5-5-5---10---------|
D|--5-5--5-7-7-5--3-3---3-----3----5-5--5-5-5--7-7-7-7-7-7-7---10---------|
A|--7-7--7-7-7-7-----------------------------------------------12---------|
E|------------------------Repeat when necessary---------------------------|

Variations on the last chord (F)
e|-Guitar 1--------------------Guitar 2-----------------------------------|
B|-5-5-6-6-6-6-6-6-6------------------------------------------------------|
G|-5-5-7-5-7-5-7-7-7-----------10-10-12-10-12-10-12-12-12-----------------|
D|-5-5-7-7-7-7-7-7-7-----------10-10-10-10 10 10 10 10 10-----------------|
A|-----------------------------12-12-12-12-12-12-12-12-12-----------------|
E|------------------------------------------------------------------------|

Bass:(Transcribed for DADGBe guitar) (1:27)
e|------------------------------------------------------------------------|
B|------------------------------------------------------------------------|
G|------------------------------------------------------------------------|
D|-------------Repeat as needed-------------------------------------------|
A|------------------------------------------------------------------------|
D|-5-5-5-5-5-0-2-5-7-7-7-7-7-7-5-7----------------------------------------|

Bridge: (2:42)
Guitar 1
e|------------------------------------------------------------------------|
B|------------------------------------------------------------------------|
G|------------------------------------------------------------------------|
D|-5-5-5-5-5-5-5-5-7-7-7-7-7-7-7-7-4-4-4-4-4-4-4-4------------------------|
A|-3-3-3-3-3-3-3-3-5-5-5-5-5-5-5-5-2-2-2-2-2-2-2-2-5-5-5-5-5-5-5-5--------|
E|-------------------------------------------------3-3-3-3-3-3-3-3--------|

Guitar 2: (2:42)
e|------------------------------------------------------------------------|
B|------------------------------------------------------------------------|
G|-5-5-5-5-5-5-5-5-7-7-7-7-7-7-7-7-4-4-4-4-4-4-4-4------------------------|
D|-x-x-x-x-x-x-x-x-x-x-x-x-x-x-x-x-x-x-x-x-x-x-x-x-5-5-5-5-5-5-5-5--------|
A|-3-3-3-3-3-3-3-3-5-5-5-5-5-5-5-5-2-2-2-2-2-2-2-2-x-x-x-x-x-x-x-x--------|
E|-------------------------------------------------3-3-3-3-3-3-3-3--------|

Bass: (Transcribed for DADGBe guitar) (2:42)
e|------------------------------------------------------------------------|
B|------------------------------------------------------------------------|
G|------------------------------------------------------------------------|
D|------------------------------------------------------------------------|
A|-3-3-3-3-3-3-3-3-5-5-5-5-5-5-5-5-2-2-2-2-2-2-2-2------------------------|
D|-------------------------------------------------5-5-5-5-5-5-5-5--------|
____________________________________________________________________________

Chords for the song

Chorus: (0:25)
     C       F       the Cmaj7 chord sounds excellent strummed
                    slowly in substitution with the C chord in some instance
e|---0-------1--------------------x---------------------------------------|
B|---1-------1--------------------0---------------------------------------|
G|---0-------2--------------------0---------------------------------------|
D|---2-------3--------------------2---------------------------------------|
A|---3-------3--------------------3---------------------------------------|
D|---x-------1--------------------x---------------------------------------|


Notes: No chords are played in the bridge

Song Build:
Intro
Verse
Chorus
Verse
Bridge
Intro
Verse (With no singing)
Chorus (With no singing)
Fade out.

Alright, hope it wasn't too complicated to understand.

Suggestions, comments and ratings are appreciated!!
Tap to rate this tab
 
# A B C D E F G H I J K L M N O P Q R S T U V W X Y Z