Broken Social Scene - All To All tab

Broken Social Scene - All to All

Guitar 1 w/Tremelo
 intro bit
 downstroke
e|---3~-------------------3~-----------------------------|
B|---3~-------------------3~-----------------------------|
G|---4~-------------------4~-----------------------------|
D|---5~-------------------5~-----------------------------|
A|---5~-------------------3~-----------------------------|
E|---3~-------------------3~-----------------------------|

 up
e|------------------------7~------------------------------------------------|
B|-8~---------8~----------8~----------8~------------------------------------|
G|-7~---------7~----------7~----------7~------------------------------------|
D|-5~---------5~----------------------5~------------------------------------|
A|--------------------------------------------------------------------------|
E|--------------------------------------------------------------------------|

verse: work around these chords:
e|--------7~-----8~-----10~-----5~--------------------------------------|
B|-8~-----8~-----8~-----8~------8~--------------------------------------|
G|-7~-----7~-----7~-----7~------7~--------------------------------------|
D|-5~-------------------------------------------------------------------|
A|----------------------------------------------------------------------|
E|----------------------------------------------------------------------|

Synth/Guitar w/Pitch shift
e|--/3\---/5\---/7\---/8\---/10\---/12\---/14\--/15\--/17~------------------|
B|--------------------------------------------------------------------------|
G|--------------------------------------------------------------------------|
D|--------------------------------------------------------------------------|
A|--------------------------------------------------------------------------|
E|--------------------------------------------------------------------------|

Chorus
e|--0~----------------------------------------------------------------------|
B|--1~----------------------------------------------------------------------|
G|--0~----------------------------------------------------------------------|
D|--2~----------------------------------------------------------------------|
A|--3~----------------------------------------------------------------------|
E|--------------------------------------------------------------------------|

Keyboard Arr. intro and verses

    B      D       C      A/E         B      D     E     C       A
e|--7------10------8------(5)---------7------10----12----8-------5----------|
B|-------------------------5------------------------------------------------|
G|--------------------------------------------------------------------------|
D|--------------------------------------------------------------------------|
A|--------------------------------------------------------------------------|
E|--------------------------------------------------------------------------|

Violin Arr.

    B D        B A   F#      E  D     B 10      E D     G F#
e|--7/10-10----7\5-5\2-2-----12\10----7/10-10---12\10---3\2-----------------|
B|--------------------------------------------------------------------------|
G|--------------------------------------------------------------------------|
D|--------------------------------------------------------------------------|
A|--------------------------------------------------------------------------|
E|--------------------------------------------------------------------------|

Keys during violin
    BD     BD      AC#   F#A  AE AD
e|--------------------------------------------------------------------------|
B|--3-3----3-3-----2-2---------5-3------------------------------------------|
G|--4-4----4-4-----2-2---2-2---2-2------------------------------------------|
D|-----------------------4-4------------------------------------------------|
A|--------------------------------------------------------------------------|
E|--------------------------------------------------------------------------|

lots of background effects with guitar harmonics on the g string sliding your finger up 
and down and noodling around C and G chord tones
Tap to rate this tab
 
# A B C D E F G H I J K L M N O P Q R S T U V W X Y Z