Song name
# A B C D E F G H I J K L M N O P Q R S T U V W X Y Z

Broken Social Scene - Stars And Sons tab

i love this song, one of bss best songs. it goes something like this:

e------------------------------------|
B------------------------------------|
G------------------------------------| x4
D------------------------------------|
A-----7---7---7---7---5---5---5---5--|
E---8---8---8---8---7---7---7---7----|

singing comes in
i think that this might actually be the bass line but i play it on guitar cause theres 
much else guitar in the song.

e------------------------------------------------------------------------|
B------------------------------------------------------------------------|
G------------------------------------------------------------------------|x9
D------------------------------------------------------------------------|
A--------------------------------------------------------------------10--|
E---3-3-3-3-3-0-3-5-5-5-5-5-5-5-3-5-8-8-8-8-8-5-7-8-10-7-8-10-12-10-12---|


it does that again but its a variation i think its something like this:

e------------------------------------|
B------------------------------------|
G------------------------------------| x4 or x5
D------------------------------------|
A------------------------------------|
E---3-3-3-3-3-0-3-3-5-5-5-5-5-5-5-5--|

right after this there is some guitar played in the background, its hard to tell what it 
but i think it goes something like this:

e-------------------------------------|
B----8----------8---------------------|
G-----9-----9----9-----9---9---9---9--| this part is right for sure it
D---------10---------10--10--10--10---| starts at about 1:40 into the song.
A-------------------------------------|
E-------------------------------------|

e---------------------------------|
B----8----------8----------8--8---|
G-----9-----9----9-----9----9--9--|  So just mess around with that stuff.
D---------10---------10-----------|  it sounds like those three notes
A---------------------------------|  played in different combinations.
E---------------------------------|


then the song is just like the verse with the bassline thing again and also the notes 
played in different variations.

and after that the song does the variation bassline so like this:

e------------------------------------|
B------------------------------------|
G------------------------------------| x4
D------------------------------------|
A------------------------------------|
E---3-3-3-3-3-0-3-3-5-5-5-5-5-5-5-5--|


then the song at about the half way point does something like this:
*played 2 times*
e-------------------------------------------------------------------------|
B-------------------------------------------------------------------------|
G-------------------------------------------------------------------------|
D-------------------------------------------------------------------------|
A-------------------------------------------------------------------------|
E-8-8-8-8-8-8-8-8-10-10-10-10-10-10-10-10-7-7-7-7-7-7-7-7-3-3-3-3-3-3-3-3-|


then it does what we started with so this:

e------------------------------------|
B------------------------------------|
G------------------------------------| x4
D------------------------------------|
A-----7---7---7---7---5---5---5---5--|
E---8---8---8---8---7---7---7---7----|

then its just the first bass line i told u like this:

played several times just listen to the song to figure out.

e------------------------------------------------------------------------|
B------------------------------------------------------------------------|
G------------------------------------------------------------------------|
D------------------------------------------------------------------------|
A--------------------------------------------------------------------10--|
E---3-3-3-3-3-0-3-5-5-5-5-5-5-5-3-5-8-8-8-8-8-5-7-8-10-7-8-10-12-10-12---|

also during that there is those three notes again like this:

e-------------------------------------|
B----8----------8---------------------|
G-----9-----9----9-----9---9---9---9--|
D---------10---------10--10--10--10---|
A-------------------------------------|
E-------------------------------------|

e---------------------------------|
B----8----------8----------8--8---|
G-----9-----9----9-----9----9--9--|  So just mess around with that stuff.
D---------10---------10-----------|  it sounds like those three notes
A---------------------------------|  played in different combinations.
E---------------------------------|

then at about 4:05 in the song i cant tell if its a voice or guitar but i play it on the 
it sounds like this:

e-----------------------------------------|
B-----------------------------------------|
G-----------------------------------------| this is played basically the
D---14-12-14-12--10--14-14-12-14-12--10~--| rest of the song but sometimes
A-----------------------------------------| it isnt exactly this but is
E-----------------------------------------| these three notes.

so i hope u enjoyed this tab for stars and sons by BSS its a great song but its got a 
to it so just watch it and maybe play with the song the first few times so u know the 
and stuff. please rate my tab.
Tap to rate this tab
# A B C D E F G H I J K L M N O P Q R S T U V W X Y Z