Song name
# A B C D E F G H I J K L M N O P Q R S T U V W X Y Z

Broken Social Scene - Major Label Debut Fast tab

intro
e|---------------------------------------------------------|
B|---------------------------------------------------------|
G|---------------------------------------------------------|
D|----2--2-----2-------------------------------------------|
A|-3--------3--------3-----3--3-----3-----3-----2--2-----2-|
E|----------------0-----1--------1-----0-----3--------3----|

e|--------------------------|
B|--------------------------|
G|--------------------------|
D|--------------------------|
A|----3----3--3-----3-----3-|
E|-0----1--------1-----0----|

 C                            F
Well I知 just coming here to come down
         G                     F
I could beat it, I could move town
 C                        F     
Put my suit slide on the guest list
         G                F
Saw my passport, became weightless

(Chorus)
         C          F
And I知 all hooked up,
     G          F
I am all hooked up (x2)

(same chord progression for chorus and other verses)

Take the street, caught me believing,
Split their eyes all, on the ceiling,
Forced to live like it痴 a curfew
Translation: it means I love you

And I知 all hooked up,
I am all hooked up (x2)

(C over solo)

NC           NC
Yeah, yeah, yeah, yeah (x4)

C                             F
Well I知 just coming here to come down
         G                F
I could beat it, I could move town
C                           F
Forced to live like it痴 a curfew
G                        F
Translation: it means I love you

And I知 all hooked up,
I am all hooked up (x2)]

End on C

Tabbed by Sam Stilson
www.drunktanks.com
Tap to rate this tab
# A B C D E F G H I J K L M N O P Q R S T U V W X Y Z