Song name
# A B C D E F G H I J K L M N O P Q R S T U V W X Y Z

Broken Social Scene - 74 Shoreline tab

Two different guitar parts combined here, fun to play.

First part (x2):

e-----------------------------|
B-----------------------------|
G--------------------------8--|
D-----------------------------|
A--------11-----12-11---------|
E------O----O-O--------O------|

Second part:

e-----------------------------|
B-----------------------------|
G--------8--8---8------8h9p8--|
D------9------9----9--------9-|
A--------11-----12-11---------|
E------O----O-O--------O------|

Email questions to shotsinthedark  @  gmail.com.
Tap to rate this tab
# A B C D E F G H I J K L M N O P Q R S T U V W X Y Z