Song name
# A B C D E F G H I J K L M N O P Q R S T U V W X Y Z

Broken Social Scene - Fire Eyed Boy tab

-------------------------------------------------------------------------------
			     FIRE EYE'D BOY - BROKEN SOCIAL SCENE
-------------------------------------------------------------------------------
Tabbed by: RYAN
Email: ryanformiles@gmail.com

Tuning: Standard

The reference I used for this tab was the live lollapalooza 2006 recording. I think it's 
spot on. But maybe I'm wrong.

INTRO - play this however many times
e|-----------7~-------------------------7~----------------------7~-----------|
B|---------------------------------------------------------------------------|
G|-------/7-----7/9\7~---7/9\7~----/7--------7/9\7~--7-7h9p7h9---------------|
D|---------------------------------------------------------------------------|
A|---------------------------------------------------------------------------|
E|---------------------------------------------------------------------------|
THEN:  xWhatever
e|---------------------------------------------------------------------------|
B|---------------------------------------------------------------------------|
G|---9--7--6--6(note.optional)--9---7---6---4--------------------------------|
D|---------------------------------------------------------------------------|
A|---------------------------------------------------------------------------|
E|---------------------------------------------------------------------------|
When you play this part the trick is to not lift your finger up and play with a loose slidey style.

Then play the intro again.

Then comes the drum solo thing at 2:56

Then some random wankery.

End on
e|--------5~---------------------------------------------------------------------|
B|--------5~---------------------------------------------------------------------|
G|-------------------------------------------------------------------------------|
D|--------4~---------------------------------------------------------------------|
A|--------5~---------------------------------------------------------------------|
E|-------------------------------------------------------------------------------|


| ~  Let Ring
| /  slide up
| \  slide down
| h  hammer-on
| p  pull-off
| ~  vibrato
| +  harmonic
| x  Mute note
===============================================================================
Tap to rate this tab
# A B C D E F G H I J K L M N O P Q R S T U V W X Y Z