Song name
# A B C D E F G H I J K L M N O P Q R S T U V W X Y Z

Broken Social Scene - Late Nineties Bedroom Rock For The Missionaries tab

Help us improve GuitareTab! Take a short survey!
Tabbed by: Cale
Email: super_happy_smile_man@hotmail.com

Tuning: Standard

There are a whole bunch of electronics in this song some the tab may seem a bit basic 
if you play along with the song it will work.

Part 1:

e|---------------------------------------------------------------------------|
B|---------------------------------------------------------------------------|
G|---------------------------------------------------------------------------|
D|-333333333333/555555555555/7777777777777777--------------------------------|
A|-333333333333/555555555555/8888888888888888--------------------------------|
E|---------------------------------------------------------------------------|

Strum very quickly ^

Part 2:

e|---------------------------------------------------------------------------|
B|---------------------------------------------------------------------------|
G|---------------------------------------------------------------------------|
D|---------------------------------------------------------------------------|
A|--3-3-3-3-3-3/-5-5-5-5-5-5/7-7-7-7-7-7-7-7---------------------------------|
E|-3-3-3-3-3-3/5-5-5-5-5-5/8-8-8-8-8-8-8-8-----------------------------------|

Part 3:

e|---------------------------------------------------------------------------|
B|---------------------------------------------------------------------------|
G|---------------------------------------------------------------------------|
D|---------------------------------------------------------------------------|
A|-5-------------------------------------------------------------------------|
E|-------5---------1---------------------------------------------------------|

Hold between each note

| /  slide up
| \  slide down
| h  hammer-on
| p  pull-off
| ~  vibrato
| +  harmonic
| x  Mute note
===============================================================================
Related for Late Nineties Bedroom Rock For The Missionaries tab