Song name
# A B C D E F G H I J K L M N O P Q R S T U V W X Y Z

Broken Vision - Mary Song tab

THE "MARY SONG"
Performed by -NJ BROKEN VISION-
Guitar Written By Kevin Gorman/Rob Burnett
Tabbed By: Billy Sciarappa
www.brokenvision.net
NJBV

ALL PLAYED WITH DISORTION
_______________________________________

Verse

---------------------------------------|
---------------------------------------|
---------------------------------------|
------------4-------5------------------|
----2-----2-------3---3------5----4----|
--0-----0-------0----------3----2------|

(PLAY 5x) except on 5th time play

---------------------------------------|
---------------------------------------|
---------------------------------------|
------------4-------5------------------|
----2-----2-------3---3----5-5---4-4---|
--0-----0-------0----------3-3---2-2---|

____________________________________________
::CHORUS::

-------------------------------------------|
-------------------------------------------|
-------------------------------------------|
------------4---4444---5---5555------------|
-2---2222---2---2222---3---3333--5-5---4-4-|
-0---0000---0---0000---0---0000--3-3---2-2-|

(PLAY 4x)
_____________________________________________

PLAY VERSE 5x (with change)
_____________________________________________

PLAY CHORUS 4x
_____________________________________________

PLAY VERSE 5x (with change)
_____________________________________________

PLAY CHORUS 4x
_____________________________________________

-------------------------------------------|
-------------------------------------------|
-------------------------------------------|
-------------------------------------------|
-5-5--4-4----------------------------------|
-3-3--2-2---0------------------------------|

(PLAY 4x)
_____________________________________________

PLAY CHORUS 8x
_____________________________________________

-------------------------------------------|
-------------------------------------------|
-------------------------------------------|
----------4----5---------------------------|
----2---2----3---3-----5--4----------------|
--0---0----0---------3---2--0------3-2-0---|
...Play 1x at 3/4 Speed...NO DISTORTION!...
______________________________________________

...NJBV...NJBV...NJBV...NJBV...NJBV...NJBV...
NJBV...NJBV...NJBV...NJBV...NJBV...NJBV...NJBV...
...NJBV...NJBV...NJBV...NJBV...NJBV...NJBV...
NJBV...NJBV...NJBV...NJBV...NJBV...NJBV...NJBV...


-BROKENVISION.NET-BROKENVISION.NET-BROKENVISION.NET-
Tap to rate this tab
# A B C D E F G H I J K L M N O P Q R S T U V W X Y Z