Song name
# A B C D E F G H I J K L M N O P Q R S T U V W X Y Z

Broken Yoke - Wake Me Up tab

sorry, this song was my first tab, but i messed up the Bridge the first time through. 
is the correct way to play it.

Bridge
guitar 1
-------------------------------------------------------------|
-------------------------------------------------1515151515b-|
--7vvv-7-9-10-9vvv---9-10-12-10vvv-----9--10--12----(^15s)---|
-------------------------------------------------------------|
-------------------------------------------------------------|
-------------------------------------------------------------|

guitar 2
------------------------------------------------------------|
------------------------------------------------------------|
--7----7------9------9-------10-------10----------5----5----|
--5----5------7------7-------8--------8-----------5----5----|
--5----5------7------7-------8--------8-----------3----3----|
--5----5------7------7-------8--------8---------------------|

guitar 1 and 2
------------------------------------------------------------|
------------------------------------------------------------|
--7----7------9------9-------10-------10----------5----5----|
--5----5------7------7-------8--------8-----------5----5----|
--5----5------7------7-------8--------8-----------3----3----|
--5----5------7------7-------8--------8---------------------|

------------------------------------------------------------|
------------------------------------------------------------|
--7--xxxx--7--9------9-------10-------10----------5----6----|
--5--xxxx--5--7------7-------8--------8-----------5----6----|
--5--xxxx--5--7------7-------8--------8-----------3----4----|
--5--xxxx--5--7------7-------8--------8---------------------|

------------------------------|
------------------------------|
------------------------------|
------------------------------|
---3h5--5--5--(x22)--3h5------|one measure of silence
------------------------------|
Tap to rate this tab
# A B C D E F G H I J K L M N O P Q R S T U V W X Y Z