Guitaretab - guitar tabs
Song name
# A B C D E F G H I J K L M N O P Q R S T U V W X Y Z

Broken Yoke - Ends With You tab

Ends With You
Broken Yoke
Beneath the Surface

Standard Tuning

Intro pt1--------------------
Guitar1                      |
---------------------------  |  ------------------|
---------------------------  |  ------------------|
---------------------------  |  ------------------|
--6-----6-6----------------  |  |---6-6-----------|
--6-----6-6----------------  |  |---6-6        ---|
--4-----4-4----------------  |  |---4-4        ---|
                             |    pm....        |
guitar2                      |           play this only the
---------------------------  |  ------------------|      first time
---------------------------  |  -------        ---|
---------------------------  |  -------        ---|
----------------6-----6-6--  |  |---6-6-----------|
----------------6-----6-6--  |  |---6-6-----------|
----------------4-----4-4--  |  |---4-4-----------|
                             |    pm....
Intro pt2
guitar1
----------------------------------------------------|
----------------------------------------------------|
------------------------------------4-4-4-4-4-4-4-4-|
-6-6-6-6-6-6-6-6-2-2-2-2-2-2-2-2---4-4-4-4-4-4-4-4-|
-6-6-6-6-6-6-6-6-2-2-2-2-2-2-2-2---2-2-2-2-2-2-2-2-|
-4-4-4-4-4-4-4-4--0-0-0-0-0-0-0-0---2-2-2-2-2-2-2-2-|

------------------|
------------------|
-6-6-6-6-6-6-6-6--|
-6-6-6-6-6-6-6-6--|
-4-4-4-4-4-4-4-4--|
-4-4-4-4-4-4-4-4--|

guitar2
-------------------------------------------|
-------------------------------------------|
-8-8=/11-11-8/9-8-8---8-8-11--11-9-8-8-9-8-|
-------------------------------------------|
-6-6=/9-9--6/7-6-6---6-6/9---9--7-6-6-7-6-|
-------------------------------------------|

-------------------------------------------|
-------------------------------------------|
-8-8=/11-11-8/9-8-8---8-8-11--11-9-8-8-9-8-|
-------------------------------------------|hold the final note
-6-6=/9-9-6/7-6-6---6-6/9---9--7-6-6-7-6-|
-------------------------------------------|

Verse 1
guitar1
------------------------------------------------|
------------------------------------------------|
------------------------------------------------| x4
--------------------------6-----6-6---6-----6-6-|
--6-----6-6---6-----6-6---4-----4-4---4-----4-4-|
--4-----4-4---4-----4-4-------------------------|

guitar 2
come in on the 3rd time through guitar 1's part
--------------------------------------------------------------|
--------------------------------------------------------------|
--------------------8899998888--------------------------------|
--------------------------------6-----6-6--xx-6--8-8b(9)r8-6--|
--6-----6-6--xx-6---6677776666--4-----4-4--xx-4---------------|
--4-----4-4--xx-4---------------------------------------------|
[ Tab from: http://www.guitaretab.com/b/broken-yoke/92361.html ]
--------------------------------------------------------------|
--------------------------------------------------------------|
--------------------8899998888--------------------------------|
--------------------------------6-----6-6--xx-6-6-6-6-6-6-6-6-|
--6-----6-6--xx-6---6677776666--4-----4-4--xx-4-4-4-4-4-4-4-4-|
--4-----4-4--xx-4---------------------------------------------|

Chorus Both guitars
----------------------------------------------------|
----------------------------------------------------|
------------------------------------4-4-4-4-4-4-4-4-|
-6-6-6-6-6-6-6-6-2-2-2-2-2-2-2-2---4-4-4-4-4-4-4-4-|
-6-6-6-6-6-6-6-6-2-2-2-2-2-2-2-2---2-2-2-2-2-2-2-2-|
-4-4-4-4-4-4-4-4--0-0-0-0-0-0-0-0---2-2-2-2-2-2-2-2-|

-------------------|
-------------------|
-6-6-6-6-6-6-6-6---|
-6-6-6-6-6-6-6-6---| x2
-4-4-4-4-4-4-4-4---|
-4-4-4-4-4-4-4-4---|

Intro part 1

Verse 2
guitar1
------------------------------------------------|
------------------------------------------------|
------------------------------------------------| x2
--------------------------6-----6-6---6-----6-6-|
--6-----6-6---6-----6-6---4-----4-4---4-----4-4-|
--4-----4-4---4-----4-4-------------------------|

guitar2
--------------------------------------------------------------|
--------------------------------------------------------------|
--------------------8899998888--------------------------------|
--------------------------------6-----6-6--xx-6--8-8b(9)r8-6--|
--6-----6-6--xx-6---6677776666--4-----4-4--xx-4---------------|
--4-----4-4--xx-4---------------------------------------------|

--------------------------------------------------------------|
--------------------------------------------------------------|
--------------------8899998888--------------------------------|
--------------------------------6-----6-6--xx-6-6-6-6-6-6-6-6-|
--6-----6-6--xx-6---6677776666--4-----4-4--xx-4-4-4-4-4-4-4-4-|
--4-----4-4--xx-4---------------------------------------------|

Repeat Chorus one time

At the end of the 2nd chorus, hold this chord
---------|
---------|
----6----|
----6----|
----4----|
----4----|

Bridge Both guitars
---------------------    -------|
---------------------    -------|
--------------------- x3 -------|
--2-----------6------    ---2---|
--2-----------6------    ---2---|
--0-----------4------    ---0---|

then...

guitar1
--------------------------------------------------|
--------------------------------------------------|
--------------------------------------------------|
--------------------------6-----6-6---6---6-6-6-6-|
--6-----6-6---6-----6-6---4-----4-4---4---4-4-4-4-|
--4-----4-4---4-----4-4---------------------------|

End with Chorus two times

b=bend up
r=reverse bend
/=slide
(=)=hold a note before sliding
Related for Ends With You tab