Song name
# A B C D E F G H I J K L M N O P Q R S T U V W X Y Z

Brokencyde - Get Crunk tab

Song: Get Crunk
Artist: BrokeNCYDE
Album: I'm Not A Fan... But The Kids Like It
Tuning: Drop D
Tabbed by: Ernie Wimperis


Okay, this song is played on a synthesizer/keyboard, but I came up with a guitar version.

This version is also played with lower notes than the original. I also finger pick 
this song, but it can also be picked.


E|-------------------------------------------------------------|
B|-------------------------------------------------------------|
G|-------------------------------------------------------------|
D|------7------7-----------4/5---------6------6----------4/5---|
A|----5------5------0----2-----------4------4-----0----2-------|
D|--5------5------0----2-----------4------4-----0----2---------|


This is played through out the entire song, and then there is a breakdown played like this:

E|-------------------------------------------------------------|
B|-------------------------------------------------------------|
G|------7------7------7-----7-----7------7---------------------| 
D|----6------6------6-----6-----6------6-----------------------|
A|--7------7------7-----7-----7------7-------------------------|
D|-------------------------------------------------------------|
Tap to rate this tab
 
# A B C D E F G H I J K L M N O P Q R S T U V W X Y Z