Brokencyde - Im Sorry I Am tab

-------------------------------------------------------------------------------
                      I'm sorry I am   -   Brokencyde
-------------------------------------------------------------------------------
Tabbed by: Martin Messner
Email: bigbonsai@hotmail.de

song on youtube: http://www.youtube.com/watch?v=4TELhQDFDeE
Tuning: E - Standard

//////////////////////////////////////////////
//                                          //
//  RATING THIS TAB TAKES ABOUT 5 SECONDS   //
//  AND HELPS ME TO IMPROVE MY WORK         //
//                                          //
//////////////////////////////////////////////

Melody
e|-------------------------------------|
B|-------------------------------------|
G|-----3---3---3---3---3---3---3---3---|
D|---3---3---4---4---5---5---4---4-----|
A|-------------------------------------|
E|-------------------------------------|

Piano (in the end)
e|------------------------------------------------------|
B|------------------------------------------------------|
G|--6---3---6---3---8---5---8---5---10--------10--------|
D|----4---4---4---4---7---7---7---7----8-11-8----8-11-8-|
A|------------------------------------------------------|
E|------------------------------------------------------|

e|------------------------------------------------------|
B|--11--------------------------------------------------|
G|---------------------------8~---6----8-10~-----3---3--|
D|-------8-11-10-8---8~----7-------------------3---3----|
A|-----9-----------9------------------------------------|
E|------------------------------------------------------|


| /  slide up
| \  slide down
| h  hammer-on
| p  pull-off
| ~  vibrato
| +  harmonic
| x  Mute note
===============================================================================
Tap to rate this tab
 
# A B C D E F G H I J K L M N O P Q R S T U V W X Y Z