Guitaretab - guitar tabs
Song name
# A B C D E F G H I J K L M N O P Q R S T U V W X Y Z

Bromheads Jacket - Fight Music For The Fight tab

Song: Fight Music for the Fight
Band: Bromheads Jacket
Album: Dits from the Commuter Belt

INTRO:

bass playing riff once, then:

e|------------0-------------------|
B|-----10-8---0-------------------|
G|------9-7---4---5--5--5---7--9--|
D|7--7--7-5---2---5--5--5---7--9--|
A|7--7------------3--3--3---5--7--|
E|5--5----------------------------|

e|------------0-------------------|
B|-----10-8---0-------------------|
G|------9-7---4---5--5--5---7-9---|
D|7--7--7-5---2---5--5--5---7-9-7-|
A|7--7------------3--3--3---5-7-7-|
E|5--5--------------------------5-|

e|------------0-------------------|
B|-----10-8---0-------------------|
G|------9-7---4---5--5--5---7--9--|
D|7--7--7-5---2---5--5--5---7--9--|
A|7--7------------3--3--3---5--7--|
E|5--5----------------------------|

VERSE 1:

bass playing riff 3 times, then:

  1   2   3   4   1   2   3   4   
 
e|----------------------------3-3-|
B|----------------------------3-3-|
G|----------------------------4-4-|
D|----------------------------5-5-|
A|--------------------------------|
E|--------------------------------|

  
 "bullied at school..."

  1   2   3   4   1   2   3   4        
e|--------------------------------|
B|--------------0-------------0---|
G|----------x-x-0-----------x-0---|
D|----------x-x-0-----------x-0---| x3
A|7*-7*-7*--x-x---7*-7*-7*--x-----| 
E|--------------------------------|

end with this:

e|----------------------------0---|
B|--------------0-------------0---|
G|----------x-x-0-----------x-0---|
D|----------x-x-0-----------x-0---| 
A|7*-7*-7*--x-x---7*-7*-7*--x-----| 
E|--------------------------------|

 "looking for some skinny kid to brake some bones":  

  1   2   3   4   1   2   3   4     

e|--------------------------------|
B|----------------------------0---|
G|----------------------------0---|
D|5---------------------------0---|
A|5---------------------------0---|
E|3-------------------------------|
 
CHORUS 1:

e|-------------------------------------------------------------------|
B|-------------------------------------------------------------------|
G|6-6-6-6-6-6-6-6/-1111111111111111-9-9-9-9-9-9-9-9--2-2-2-2-2-2-2-2-|
D|7-7-7-7-7-7-7-7/-1212121212121212-1010101010101010-3-3-3-3-3-3-3-3-|
A|7-7-7-7-7-7-7-7/-1212121212121212-1010101010101010-3-3-3-3-3-3-3-3-|
E|5-5-5-5-5-5-5-5/-1010101010101010-8-8-8-8-8-8-8-8--1-1-1-1-1-1-1-1-|

e|-------------------------------------------------------------------|
B|-----------------------------------------------0-------------------|
G|6-6-6-6-6-6-6-6/-1111111111111111-9------------0-------------------|
D|7-7-7-7-7-7-7-7/-1212121212121212-10-----------0---3---------------|
A|7-7-7-7-7-7-7-7/-1212121212121212-10---------------3---------------|
E|5-5-5-5-5-5-5-5/-1010101010101010-8----------------1---------------|

                                                 ^^open strings 
                                                   played quietly

AFTER CHORUS:

e|------------0-------------------|
B|-----10-8---0-------------------|
G|------9-7---4---5--5--5---7-9---|
D|7--7--7-5---2---5--5--5---7-9-7-|
A|7--7------------3--3--3---5-7-7-|
E|5--5--------------------------5-|

e|------------0-------------------|
B|-----10-8---0-------------------|
G|------9-7---4---5--5--5---7--9--|
D|7--7--7-5---2---5--5--5---7--9--|
A|7--7------------3--3--3---5--7--|
E|5--5----------------------------|
[ Tab from: http://www.guitaretab.com/b/bromheads-jacket/187207.html ]
^^repeat

VERSE 2:

bass playing riff 3 times, then:

 "feels a satisfaction when he \ hears those backbones cracking":  
  
  1   2   3   4  \1   +   2   +   3   +   4   +     
  
e|------------------------------------------------|
B|----------------------------------------0-------|
G|------------------------------------x---0-------|
D|----------------5*5*----------------x---0-------|
A|--------------------7*7*7*--7*------x-----------|
E|------------------------------------------------|

then: same as in verse 1


CHORUS 2:

e|-------------------------------------------------------------------|
B|-------------------------------------------------------------------|
G|6-6-6-6-6-6-6-6/-1111111111111111-9-9-9-9-9-9-9-9------------------|
D|7-7-7-7-7-7-7-7/-1212121212121212-1010101010101010-3-3-3-3-3-3-3-3-|
A|7-7-7-7-7-7-7-7/-1212121212121212-1010101010101010-3-3-3-3-3-3-3-3-|
E|5-5-5-5-5-5-5-5/-1010101010101010-8-8-8-8-8-8-8-8--1-1-1-1-1-1-1-1-|

e|-------------------------------------------------------------------|
B|-----------------------------------------------0-------------------|
G|6-6-6-6-6-6-6-6/-1111111111111111-9------------0---2---------------|
D|7-7-7-7-7-7-7-7/-1212121212121212-10-----------0---3---------------|
A|7-7-7-7-7-7-7-7/-1212121212121212-10---------------3---------------|
E|5-5-5-5-5-5-5-5/-1010101010101010-8----------------1---------------|
                                                 ^^open strings 
                                                   played quietly 
SOLO:

watch out for the time signature at the end

  1   2   3   4   1   2   3   4   1   2   3   4   1   2   3   4     

e|------------------------------------------------------------0---|
B|------------------------------------------------------------0---|
G|7777777777777777777777777777777777777777777777777--5--2-0---0---|
D|------------------------------------------------------------0---|
A|------------------------------------------------------------0---|
E|----------------------------------------------------------------|

  1   2   3   4   1   2   3   4   1   2   3   4    1   +   2 + 3 + 4 +   

e|888888888888888888888888888888888888888888888888 8p0h5-----3-0---3---|
B|xxxxxxxxxxxxxxxxxxxxxxxxxxxxxxxxxxxxxxxxxxxxxxxx ------------0---0---|
G|888888888888888888888888888888888888888888888888 --------------------|
D|------------------------------------------------ --------------------|
A|------------------------------------------------ --------------------|
E|------------------------------------------------ --------------------|

AFTER SOLO:
 
e|-------------------------|
B|------8-8-8-------8-8-8--|
G|------7-7-7-------7-7-7--|
D|7-7-7-5-5-5-7-7-7-5-5-5--| x2
A|7-7-7-5-5-5-7-7-7-5-5-5--|
E|5-5-5-------5-5-5--------|

then:

e|------------0-------------------|
B|-----10-8---0-------------------|
G|------9-7---4---5--5--5---7-9---|
D|7--7--7-5---2---5--5--5---7-9-7-|
A|7--7------------3--3--3---5-7-7-|
E|5--5--------------------------5-|

e|------------0-------------------|
B|-----10-8---0---------------0---|
G|------9-7---4---5--5--5-----0---|
D|7--7--7-5---2---5--5--5-----0---|
A|7--7------------3--3--3---------|
E|5--5----------------------------|

LAST CHORUS:

 = CHORUS 1


=========================================================================

* ... harmonic
x ... Mute Note
/ ... slide up
h ... hammer-on
p ... pull-off

Related for Fight Music For The Fight tab
Advertisement will be closed in 10 seconds