Song name
# A B C D E F G H I J K L M N O P Q R S T U V W X Y Z

Bromheads Jacket - What Ifs Maybes tab

Bromheads Jacket - www.bromheadsjacket.com
What If's + Maybe's

Standard Tuning

Feedback

Intro Strums E

E------0-----------------------|
B------0-----------------------|
G------1-----------------------|
D------2-----------------------|
A------2-----------------------|
E------0-----------------------|


Then

       E     A     G
E------0-----5-----3-------------|
B------0-----5-----3-------------|
G------1-----6-----4-------------|   X 4
D------2-----7-----5-------------|
A------2-----7-----5-------------|
E------0-----5-----3-------------|


Then
Chorus
'Woo ooo What if maybe'

       E x4   G x4   A x4    G x4   E x4   G x4   A    G
E------0------3------5-------3------0------3------5----3-|
B------0------3------5-------3------0------3------5----3-|
G------1------4------6-------4------1------4------6----4-|
D------2------5------7-------5------2------5------7----5-|
A------2------5------7-------5------2------5------7----5-|
E------0------3------5-------3------0------3------5----3-|


Then
Verse
       E     A     G         G    A
E------0-----5-----3---------3----5-|
B------0-----5-----3---------3----5-|
G------1-----6-----4-- X 10  4----6-|
D------2-----7-----5---------5----7-|
A------2-----7-----5---------5----7-|
E------0-----5-----3---------3----5-|

Just Bass for the rest of the verses then


This again for 'Woo ooo What if maybe'

       E x4   G x4   A x4    G x4   E x4   G x4   A    G
E------0------3------5-------3------0------3------5----3-|
B------0------3------5-------3------0------3------5----3-|
G------1------4------6-------4------1------4------6----4-|
D------2------5------7-------5------2------5------7----5-|
A------2------5------7-------5------2------5------7----5-|
E------0------3------5-------3------0------3------5----3-|


Finishes with

       E     A     G
E------0-----5-----3-------------|
B------0-----5-----3-------------|
G------1-----6-----4-------------|   X 4
D------2-----7-----5-------------|
A------2-----7-----5-------------|
E------0-----5-----3-------------|

Ending on E
Tap to rate this tab
# A B C D E F G H I J K L M N O P Q R S T U V W X Y Z