Song name
# A B C D E F G H I J K L M N O P Q R S T U V W X Y Z

Bromheads Jacket - Lions On The Prowl tab

Bromheads Jacket (www.bromheadsjacket.com)

Lions on the Prowl

Standard Tuning

Main Riff (Drums and Bass change in this but Guitar stays same throughout)

E--------------------------------------------|
B--------------------------------------------|
G--------------------------------------------|
D--------------------------------------------|
A-------------------7-----9------------------|
E------7-----10--------------10--------------|


Until

'Lets move on now' about 0:53 in..


       B         E     G
E----------------------------------------|
B----------------------------------------|
G----------   ---1----------------   X 2-|
D------9---   ---2-----5-----------------|
A------9---X3 ---2-----5-----------------|
E------7---------0-----3-----------------|


Then

E----------------------------------------|
B----------------------------------------|
G---------------------9-----11-----------|
D------9-----12-------9-----11---12------|  X 4
A------9-----12-------7-----9----12------|
E------7-----10------------------10------|


Then back to Main Riff

Until

'Lets move on now' about 1:53 in..


       B         E     G
E----------------------------------------|
B----------------------------------------|
G----------   ---1----------------   X 2-|
D------9---   ---2-----5-----------------|
A------9---X3 ---2-----5-----------------|
E------7---------0-----3-----------------|


Solo bit with couple of hammer ons, bends and stuff which I'm unsure of but quickly to

       B         E     G
E--------------------------------|
B--------------------------------|
G----------------1---------------|
D------9---------2-----5---------|
A------9---------2-----5---------|
E------7---------0-----3---------|

Finishing on Main Riff
Tap to rate this tab
 
# A B C D E F G H I J K L M N O P Q R S T U V W X Y Z