Song name
# A B C D E F G H I J K L M N O P Q R S T U V W X Y Z

Bromheads Jacket - Fight Music For The Fight tab

Album: Dits from the Commuter Belt
Email: sam_belton@hotmail.com
Tuning: Standard

Intro:

bass intro played

G|---------------------------|
D|-----7-5-------------------|
A|---------7---3-3-3--5-7----|
E|-5-5--------------------5--|

guitar comes in after one:

e|-------------------------------|
B|------10-8---------------------|
G|------9--7--9----5-5-5--7-9----| 
D|-7-7--7--5--9----5-5-5--7-9-7--| X3
A|-7-7--------7----3-3-3--5-7-7--|
E|-5-5------------------------5--|

verse is played by the bass all 

after X4 start muting around A

e|-5~~-|
B|-5~~-|
G|-6~~-|
D|-7~~-|
A|-7~~-|
E|-5~~-|
Looking for some skinny kids...

Chorus:

e|-55555555-------------------55555555--|
B|-55555555-77777777-55555555-55555555--|
G|-66666666-77777777-55555555-66666666--|
D|-77777777-77777777-55555555-77777777--|
A|-77777777-55555555-33333333-77777777--|
E|-55555555-------------------55555555--|

e|-55555555-----------------------------|
B|-55555555-77777777-5--------5---------|
G|-66666666-77777777-5--------5---------|
D|-77777777-77777777-5--------5---------|
A|-77777777-55555555-3--------3---------|
E|-55555555-----------------------------|

sorry, havnt worked out the solo yet!

After Solo:

e|-5555------5555-------|
B|-5555-7777-5555-7777--|
G|-6666-7777-6666-7777--|
D|-7777-7777-7777-7777--|
A|-7777-5555-7777-5555--|
E|-5555------5555-------|



Tap to rate this tab
# A B C D E F G H I J K L M N O P Q R S T U V W X Y Z