Song name
# A B C D E F G H I J K L M N O P Q R S T U V W X Y Z

Brontide - Coloured Tongues tab

                                                      [BRONTIDE - COLOURED TONGUES]

Seeing as how there aren't any tabs at all for Brontide I thought I'd share the little I
know of my favourite song Coloured Tongues. To really get the right sound for this
track you'll need a harmoniser or something similar and pitch it down an octave. Due to the
insane amount of loops going on for the majority of the track I've only figured out the
final part of the song. I learnt it be ear so there may be a few little errors but 
mostly this sounds pretty good to me.

[3:44]

e|---------------|
b|---------------|
g|---------------| x 4
d|----5--3-------|
a|-3--------6--5-|
E|---------------|

e|-----------------|
b|-------------4---|
g|-------3--5------|
d|----5------------| x 4
a|-6---------------|
E|-----------------|                   Repeat

e|----------3----|
b|-------4-----6-|
g|----5----------| x 4
d|-6-------------|
a|---------------|
E|---------------|

e|----------------|
b|-------3--4--6--|
g|----4-----------|
d|-5--------------| x 4
a|----------------|
E|----------------|


[4:18] Rundown riff

e|-3---------------|
b|----6--4---------|
g|-----------------|
d|----------5--3---| x 4
a|----------------6|
E|-----------------|

[4.22]

e|------------------------------------------------4----3--------------|
b|------------------------------------------3--6----------6--4--------|
g|---------------------------------------4----------------------------|
d|----5--3--------------------5--6----5------------------------5--3---|
a|-3--------6--5--------3--6-----------------------------------------6|
E|----------------3--4------------------------------------------------|


[4:54]

e|-3---------------|
b|----6--4---------|
g|-----------------|
d|----------5--3---| x 3 (Play along with the song to get the tempo shift tight)
a|----------------6|
E|-----------------|

[4:58]

e|------------------------------------------------------6--------6--8------|
b|----------------------------------------------3--4-------6--8------------|
g|-------------------------------------1--3--5-----------------------------|
d|-----5--3--------------------5--6----------------------------------------|
a|--3--------6--5--------3--6----------------------------------------------|
E|-----------------3--4----------------------------------------------------|

Enjoy!
Tap to rate this tab
 
# A B C D E F G H I J K L M N O P Q R S T U V W X Y Z