Song name
# A B C D E F G H I J K L M N O P Q R S T U V W X Y Z

Bronx Casket Co - Sheri Moon tab

Help us improve GuitareTab! Take a short survey!
*= Palm Muting

http://www.bronxcasketco.com/

(This Is How I play the song, works pretty well I find. Each Riff is repeated numerous 
so you'll have to listen to the song to figure how many times to play each one. There is 
of Staccato in this song!)

Main Riff

e|--------------------------------------------|
B|--------------------------------------------|
G|--------------------------------------------|
D|--------------------------------------------|
A|---6--66----6--66---------------------------|
E|---4--44----4--44---------------------------|

Chorus Riff
e|--------------------------------------------|
B|--------------------------------------------|
G|--------------------------------------------|
D|--------------------------------------------|
A|-----5----5----5----5----5-6-5--------------|
E|--00-3-00-3-00-3-00-3-00-3-4-3--------------|
    **   **   **   **   **

During Sound FX
e|--------------------------------------------|
B|--------------------------------------------|
G|--------------------------------------------|
D|--------------------------------------------|
A|--99999999--234-234-234---------------------|
E|--77777777--123-123-123---------------------|

Play During second half of the FX Break
e|--------------------------------------------|
B|--------------------------------------------|
G|--------------------------------------------|
D|--------------------------------------------|
A|-------234-234-234---------234-234-234------|
E|-0-0-0-123-123-123---0-0-0-123-123-123------|
   * * *               * * *


Hint: Listening to the lyrics is key to figuring out the alternating between riffs!
Related for Sheri Moon tab