Song name
# A B C D E F G H I J K L M N O P Q R S T U V W X Y Z

Bronx - Dirty Leaves tab

ARTIST: The Bronx
TITLE: Dirty Leave
ALBUM: The Bronx II
TABBED BY: Tyler

Intro
E E/F/E x3
E E E E

"I never wanted to admit to this..."
Dm Am C G
Dm Am C G
E E/F/E
E E E E

"All alone, in the city by the sea..."
Dm Am E Am
Dm Am E Am


Bridge
e|-111001-1-114-11----------------|-------------------------|
B|-333333-3-333-33-1-1001 1113 11-|----------------------1--|
G|-222222-2-222-22-2-2222-2222-22-|-1-1-11-111-----------2--|
D|-----------------2-2222-2222-22-|-2-2-22-222--3p2------2--|
A|--------------------------------|-2-2-22-222-----3p2-0-0- |
E|--------------------------------|-0-0-00-000--------------|

"I never wanted your heart to break..."
Dm Am C G
Dm Am C G
E E/F/E
E E E E

"All alone, in the city by the sea..."
Dm Am E Am
Dm Am E Am

"Once again I'm torn between..."
Distorted x3                Bar 4
e|-------------------------|-----------------------------------------|
B|-------------------------|---------------------9999-9-9-9-9-9-9-9-9|
G|-------------------------|---------------------9999-9-9-9-9-9-9-9-9|
D|-10/7-777777-7/5-5552222-|-10/7-7777777-7/5-5559999-9-9-9-9-9-9-9-9|
A|-10/7-777777-7/5-5552222-|-10/7-7777777-7/5-5557777-7-7-7-7-7-7-7-7|
E|-8-/5-555555-5/3-3330000-|-8-/5-5555555-5/3-333--------------------|

Bridge 2
e|-111001-1-114-11----------------|-------------------------|
B|-333333-3-333-33-1-1001 1113 11-|------------1-111111-----|
G|-222222-2-222-22-2-2222-2222-22-|-1-1-11-112-2-222222-----|
D|-----------------2-2222-2222-22-|-2-2-22-222-2-222222-----|
A|--------------------------------|-2-2-22-222--------------|
E|--------------------------------|-0-0-00-000--------------|

"All alone, in the city by the sea..."
Dm Am E Am
Dm Am E Am
Dm Am E Am
Dm Am E Am
Am C C Am

Tap to rate this tab
 
# A B C D E F G H I J K L M N O P Q R S T U V W X Y Z