Guitaretab - guitar tabs
Song name
# A B C D E F G H I J K L M N O P Q R S T U V W X Y Z

Bronx - Knifeman tab

-------------------------------------------------------------------------------
			     Knifeman  The Bronx
-------------------------------------------------------------------------------
Tabbed by: ItchyBilly	
Email: itchy-juli@hotmail.de

Tuning: E A D G B E

Intro/Verse

e|----------------------------------|
B|----------------------------------|
G|----------------------------------|
D|-44444444444444444444444444444444-|
A|-44444444444444444444444444444444-|
E|-02222222222222220222222222222222-|

Chorus
[ Tab from: http://www.guitaretab.com/b/bronx/190244.html ]
e|--------------------------------------------------------------------------|
B|--------------------------------------------------------------------------|
G|--------------------------------------------------------------------------|
D|-7---9---7---44-7-2--44-7-2----7---9---7---44-7-2--44-7-2--44-7-2--44-7-2-|
A|-7---9---7---44-7-2--44-7-2----7---9---7---44-7-2--44-7-2--44-7-2--44-7-2-|
E|-5---7---5---22-5-0--22-5-0----5---7---5---22-5-0--22-5-0--22-5-0--24-5-0-|

Bridge

e|---------------|
B|---------------|
G|---------------|
D|-44-11-9-13----|
A|-44-11-9-13-x8-|
E|-22-9--7-11----|

End On

e|-----|
B|-----|
G|-----|
D|-444-|
A|-444-|
E|-022-|

 Listen to the song for the rhythm and the right order of the parts.
Related for Knifeman tab