Bronx - Heart Attack American tab

-------------------------------------------------------------------------------
			     HEART ATTACK AMERICAN - The Bronx
-------------------------------------------------------------------------------
Tabbed by: Atari6.0
  Band: The Bronx
  Song: Heart Attack American
 Album: The Bronx (I)
Tuning: Standard

Pretty simple and fun. Its pretty fast and the timing jumps around a bit
so hard to hear rhythm a lot of the time... hence there are quite a 
few ghost notes which I've just left as gaps so listen to it yourself 
I guess and play it how you think.
Cracking song.


Intro

e|---------------------------------------------------------------------------|
B|---------------------------------------------------------------------------|
G|---------------------------------------------------------------------------|
D|---------------------------------------------------------------------------|
A|---------------353-------------353-----------353-5\6-6666/5-3p0 3p0-3h5p3p0|
E|-3h5-5355535553---5-55355535553---5-553553553------------------------------|

e|------------------------------------------------------------------------xx-|
B|------------------------------------------------------------------------xx-|
G|------------------------------------------------------------------------xx-|
D|------------------------------------------------------------------------xx-|
A|---------------353-------------353-----------353-5\6-6666/5-3p0 3p0-3h5-xx-|
E|--5-55355535553---5-55355535553---5-553553553---------------------------xx-|

e|---------------------------------------------------------------------------|
B|---------------------------------------------------------------------------|
G|---------------------------------------------------------------------------|
D|-7-777777777771111----12-12121212121212121212121112------------------------|
A|-7-777777777771111-x3-12-12121212121212121212121112------------------------|
E|-5-555555555558-8-----10-10101010101010101010108-10------------------------|
    ^                     ^
    ^                     ^
bit of a ghost note here throughout - listen to the rhythm and play how you see fit


Verse 1

e|---------------------------------------------------------------------------|
B|---------------------------------------------------------------------------|
G|---------------------------------------------------------------------------|
D|-7-777777777771111----12-12121212121212121212121112------------------------|x2
A|-7-777777777771111-x3-12-12121212121212121212121112------------------------|
E|-5-555555555558-8-----10-10101010101010101010108-10------------------------|

Riff 1

e|---------------------------------------------------------------------------|
B|---------------------------------------------------------------------------|
G|--------5---577br5----5---5---57br5----5---5---57br5----5------------------|
D|---777-7-7-7--------77-7-7-7-7-------77-7-7-7-7-------77-7-7-7-------------|
A|---------------------------------------------------------------------------|
E|---------------------------------------------------------------------------|

Verse 2

e|---------------------------------------------------------------------------|
B|---------------------------------------------------------------------------|
G|---------------------------------------------------------------------------|
D|-7-777777777771111----12-12121212121212121212121112------------------------|x2
A|-7-777777777771111-x3-12-12121212121212121212121112------------------------|
E|-5-555555555558-8-----10-10101010101010101010108-10------------------------|

Chorus type thing 1

e|---------------------------------------------------------------------------|
B|---------------------------------------------------------------------------|
G|---------------------------------------------------------------------------|
D|-7-777711-5-555511-12-12121212121212121212121212---------------------------|
A|-7-777711-5-555511-12-12121212121212121212121212----x2---------------------|
E|-5-55558--3-33338--10-10101010101010101010101010---------------------------|

Verse 3

e|-xx------------------------------------------------------------------------|
B|-xx------------------------------------------------------------------------|
G|-xx------------------------------------------------------------------------|
D|-xx-(5)/7-7777777777711/12-----12-12121212121212121212121112---------------|
A|-xx-(5)/7-7777777777711/12-x3--12-12121212121212121212121112---------------|
E|-xx-(3)/5-555555555558-/10-----10-10101010101010101010108-10---------------|

e|---------------------------------------------------------------------------|
B|---------------------------------------------------------------------------|
G|---------------------------------------------------------------------------|
D|-7-777777777771111----12-12121212121212121212121112------------------------|x2
A|-7-777777777771111-x3-12-12121212121212121212121112------------------------|
E|-5-555555555558-8-----10-10101010101010101010108-10------------------------|

Riff 2

Played across 2 guitars I think but tabbed for 1:
e|---------------------------------------------------------------------------|
B|---------------------------------------------------------------------------|
G|---------------------------------------------------------------------------|
D|---77---7---77---7---77---7---77-------------------------------------------|
A|---------------------------------------------------------------------------|
E|-55---55--55---55--55---55--55---5-----------------------------------------|

Breakdown 1

e|---------------------------------------------------------------------------|
B|---------------------------------------------------------------------------|
G|---------------------------------------------------------------------------|
D|-7777777777771111111212121212121212121313131211----------------------------|
A|-7777777777771111111212121212121212121313131211-x3-------------------------|
E|-5555555555558-8-8-101010101010101010111111108-----------------------------|

e|---------------------------------------------------------------------------|
B|---------------------------------------------------------------------------|
G|---------------------------------------------------------------------------|
D|-7777777777771111111212x1212x12-1313131211---------------------------------|
A|-7777777777771111111212x1212x12-1313131211---------------------------------|
E|-5555555555558-8-8-1010x1010x10-111111108----------------------------------|

Chrous type thing/Breakdown 2

e|---------------------------------------------------------------------------|
B|---------------------------------------------------------------------------|
G|---------------------------------------------------------------------------|
D|-7-777711x5-555511(\12)12-12121212121212121212121212-----------------------|
A|-7-777711x5-555511(\12)12-12121212121212121212121212-----------------------|
E|-5-55558-x3-33338-(\10)10-10101010101010101010101010-----------------------|
                      ^
                      ^
Pretty sure there is an extra note/slide in here and the same below but not 
quite sure what

e|---------------------------------------------------------------------------|
B|---------------------------------------------------------------------------|
G|---------------------------------------------------------------------------|
D|-7-777711-5-555511-12(12)xxxxxxxxxxx1212-----------------------------------|
A|-7-777711-5-555511-12(12)xxxxxxxxxxx1212-----------------------------------|
E|-5-55558--3-33338--10(12)xxxxxxxxxxx1010-----------------------------------|

e|---------------------------------------------------------------------------|
B|---------------------------------------------------------------------------|
G|---------------------------------------------------------------------------|
D|-7-777711x5-555511(\12)12-12121212121212121212121212-----------------------|
A|-7-777711x5-555511(\12)12-12121212121212121212121212-x2--------------------|
E|-5-55558-x3-33338-(\10)10-10101010101010101010101010-----------------------|

Outro

e|---------------------------------------------------------------------------|
B|---------------------------------------------------------------------------|
G|---------------------------------------------------------------------------|
D|-7-775777577751012x--------------------------------------------------------|
A|-7-775777577758-10x-x7-----------------------------------------------------|
E|-5-555555555558-10x--------------------------------------------------------|

e|---------------------------------------------------------------------------|
B|---------------------------------------------------------------------------|
G|---------------------------------------------------------------------------|
D|-\13-131313131210101010101010107-------------------------------------------|
A|-\13-131313131210101010101010107-------------------------------------------|
E|-\11-11111111108-8-8-8-8-8-8-8-5-------------------------------------------|


************************************

| /   slide up
| \   slide down
| h   hammer-on
| p   pull-off
| ~   vibrato
| +   harmonic
| x   Mute note
| b   Bend
| pb  Pre-bend
| br  Bend release
| pbr Pre-bend release
| brb Bend release bend
| ()  Ghost note

************************************
Tap to rate this tab
 
# A B C D E F G H I J K L M N O P Q R S T U V W X Y Z