Song name
# A B C D E F G H I J K L M N O P Q R S T U V W X Y Z

Bronx - Heart Attack American tab

This is a really cool but easy song to play and I couldn’t find any decent
tabs so I thought I’d give you one. Enjoy.

Tuning-E(standard)

Intro
E----------------------------------------------------|
B----------------------------------------------------|
G----------------------------------------------------|      Repeat this
D----------------------------------------------------|          3x
A--------------------------------------3h5-3---------|
E---5-5-5-3---5-5-5-3---5-5-5-3----------------------|

On the end of the third time do this
E---------------------------------------|
B---------------------------------------|
G---------------------------------------|
D---------------------------------------|
A-----6-6-6-6-6-6-5-5-5-5-5-5-----------|
E---------------------------------------|

Then repeat the whole thing again.


Verse
E-----------------------------------------|
B-----------------------------------------|
G---22222222222---555--777----------------|       3x
D---22222222222---555--777----------------|
A---00000000000---333--555----------------|
E-----------------------------------------|

At the end of the third
E--------------------------------------|
B--------------------------------------|
G---77777777---88--7-5-----------------|
D---77777777---88--7-5-----------------|
A---55555555---66--5-3-----------------|
E--------------------------------------|


Then there’s this little bit

Bridge
E-----------------------------------------------------|
B-----------------------------------------------------|
G-------------5--------5--------5--7--8--7--5---------|    3x
D--------7-7-----7--7----7--7-------------------------|
A-----------------------------------------------------|
E-----------------------------------------------------|
At the end of the third
E------------------------------|
B------------------------------|
G-------------5----------------|
D-------7-7-----7-7-7-7--------|
A------------------------------|
E------------------------------|

Verse again

Chorus
E--------------------------------------------------|
B--------------------------------------------------|
G---2222222-----------777777777777-----------------|
D---2222222--5555555--555555555555-----------------|   2x
A---0000000--5555555--555555555555-----------------|
E------------3333333-------------------------------|

Verse

Random Bit
E------------------------------------------|
B------------------------------------------|
G------------------------------------------|   2x
D----7--7-7-7-----7--7-7-7------7--7-7-----|
A----5------------5-------------5----------|
E----5------------5-------------5----------|

Verse
Chorus

Outro-Same as the intro

Its not 100% but its good enough. Have fun playing it
Tap to rate this tab
# A B C D E F G H I J K L M N O P Q R S T U V W X Y Z