Song name
# A B C D E F G H I J K L M N O P Q R S T U V W X Y Z

Bronx - Notice Of Eviction tab

ARTIST: The Bronx
TITLE: Notice Of Eviction
ALBUM: The Bronx
TABBED BY: kryptonite22
TUNING: Standard (E A D G B e)
NOTES: Listen to song for rhythm.

INTRO
e|---------------------------|
B|---------------------------|
G|---------------------------|
D|--55-555-555-555-555-5555--|
A|--55-555-555-555-555-5555--|
E|--33-333-333-333-333-3333--| x2

e|------|
B|------|
G|------|
D|------|
A|--3b--|
E|------|

VERSE
e|-------------------------------------|
B|-------------------------------------|
G|-------------------------------------|
D|--55-555-555-555-555-5555------------|
A|--55-555-555-555-555-5555--66666666--|
E|--33-333-333-333-333-3333------------|x4

PRE-CHORUS
e|------------------------------------|
B|------------------------------------|
G|--88888888-77777777-----------------|
D|--88888888-77777777-55555555333030--|
A|--66666666-55555555-----------------|
E|------------------------------------|

VERSE

PRE-CHORUS

CHORUS
E|----------------------|
B|----------------------|
G|--------88--------88--|
D|-555555-88-888888-88--|
A|-555555-66-888888-66--|
E|-333333----666666-----|

RIFF SIMILAR TO VERSE:
E|------------------------------------|
B|------------------------------------|
G|------------------------------------|
D|-55-555-555-555-555-5555------------|
A|-55-555-555-555-555-5555--56565310--|
E|-33-333-333-333-333-3333------------|


BASS ON IT'S OWN

CHORUS

VERSE
Tap to rate this tab
# A B C D E F G H I J K L M N O P Q R S T U V W X Y Z