Guitaretab - guitar tabs
Song name
# A B C D E F G H I J K L M N O P Q R S T U V W X Y Z

Bronx - Shitty Future tab

----------------------------------------------------------------------------
			     SHITTY FUTURE - The Bronx
----------------------------------------------------------------------------

Album: The Bronx II (2006)
Tuning: EADGBe
Tabbed by: Jacob Fleming 
Email: wtf.was.in.that.danish@gmail.com



Intro 

(bass only)

---------------------------------

Intro Pt. 2 / Verse

e-----------------|
B-----------------|
G-----------------|
D-----------------|
A-8-8-8-8-11-8-8--|
E-6-6-6-6-9--6-6--|

  1 + 2 + 3  + 4 +

---------------------------------

Pre-Verse

e-----|
B-----|
G-----|
D-8-x-|
A-8-x-|
E-6-x-|


I won't write the rhythm out.
I'm sure you can figure it out.

---------------------------------

Chorus

e---------------------------------|
B---------------------------------|
G-6-6-6-6-6-6-6-6-6-7---5---6---4-|
D-6-6-6-6-6-6-6-6-6-7---5---6---4-|
A-4-4-4-4-4-4-4-4-4-5---3---4---2-|
E---------------------------------|

  1 + 2 + 3 + 4 + 1 + 2 + 3 + 4 +
[ Tab from: http://www.guitaretab.com/b/bronx/77239.html ]
e---------------------------------|
B---------------------------------|
G-3-3-3-3-3-3-3-3-3-3-3-3-3-3-3-3-|
D-3-3-3-3-3-3-3-3-3-3-3-3-3-3-3-3-|
A-1-1-1-1-1-1-1-1-1-1-1-1-1-1-1-1-|
E---------------------------------|

  1 + 2 + 3 + 4 + 1 + 2 + 3 + 4 +

---------------------------------

Pre-Verse 2

e--------------------------------|
B--------------------------------|
G--------------------------------|
D--------------------------------|
A-5-----4-----5-----4-----5---4--|
E---6-6---6-6---6-6---6-6---6----|

  1 + 2 + 3 + 4 + 1 + 2 + 3 + 4 +

---------------------------------

Bridge

e-----------------|
B-----------------|
G-----------------|
D-----------------|
A-5-----4---------|
E---6-6---6-4-5-6-|

  1 + 2 + 3 + 4 + 

One more time your shitty future!


And that's it. Relatively simple, but fun song to play.
The chorus especially kicks ass. 
Enjoy. Here's the order of it all:

Intro
Intro Pt. 2
Pre-Verse
Verse
Chorus
Pre-Verse 2
Verse
Pre-Verse 2
Verse
Chorus
Bridge
Verse
Chorus
Related for Shitty Future tab