Song name
# A B C D E F G H I J K L M N O P Q R S T U V W X Y Z

Bronx - Three Dead Sisters tab

E|------------------------------------|
B|------------------------------------|
G|-x4-x4-x4-x4-4-4-4-4-3--------------|
D|-x4-x4-x4-x4-4-4-4-4-3-7------------|
A|-x2-x2-x2-x2-2-2-2-2-1-7------------|
E|-----------------------5------------|


E|------------------------------------|
B|------------------------------------|
G|-4-4-4-4-3--------------------------|  x2
D|-4-4-4-4-3-7------------------------|
A|-2-2-2-2-1-7------------------------|
E|-----------5------------------------|


E|------------------------------------|
B|------------------------------------|
G|4-4-3-4-4-3-4-4-4-4-3---------------|
D|4-4-1-4-4-3-4-4-4-4-3-7-------------|
A|2-2-1-2-2-1-2-2-2-2-1-7-------------|
E|----------------------5-------------|

E|------------------------------------|
B|------------------------------------|
G|-4-4-4-4-3--------------------------|  x2
D|-4-4-4-4-3-7------------------------|
A|-2-2-2-2-1-7------------------------|
E|-----------5------------------------|

E|------------------------------------|   untill vocals come in
B|------------------------------------|
G|4-4-3-4-4-3-4-4---------------------|
D|4-4-1-4-4-3-4-4---------------------|
A|2-2-1-2-2-1-2-2---------------------|
E|------------------------------------|
couldnt find any tabs so i had a go, pretty sure this is right sounds good anyway :)
Tap to rate this tab
# A B C D E F G H I J K L M N O P Q R S T U V W X Y Z