Song name
# A B C D E F G H I J K L M N O P Q R S T U V W X Y Z

Bronze Radio Return - Blurry-eyed Worries chords

Highlighted       Show chord diagrams
capo on the 2nd fret
Intro:
e|---------------------------------------------------------------------------|
B|---------------------------------------------------------------------------|
G|---------------------------------------------------------------------------|
D|-----------------2-2-2-6-6-4-2-------------------2-2-2-6-6-6-6-6-----------|
A|-2-2-4-4-6-6-7-7-0-0-0-0-0-0-0-4-2-2-4-4-6-6-7-7-0-0-0-0-0-0-0-0-----------|
E|-0-0-0-0-0-0-0-0---------------0-0-0-0-0-0-0-0-0---------------------------|
E                 A
 A standard lie, or common truth
E                A
I don't know for sure
E                   A
A cloudy sky, that hovers over you
      E              A
It's what you worry for

E                   A
  I know I'ma gonna, lay down and die
E                          A
  Don't need nobody now to tell me where and why
E                   A
  I know I'ma gonna, lay down and die
E                A
  Don't know for sure
         B                A                E           A
That the wind it blows no matter where you are
   B
So hold your place
A E      B            E                A
  Stay today 'cause tomorrow comes for sure
          E                            B
I'm gonna live (I'm gonna live) 'til I die ('til I die)
          A                        E
Until the blurry-eyed worry's gone by
E       B           E              A
Stay today 'cause tomorrow's at my door
          E                            B
I'm gonna live (I'm gonna live) 'til I die ('til I die)
          A                        E(2nd half of intro riff)
Until the blurry-eyed worry's gone by
E                       A
  You feel you're bound, with bills to pay
   E              A
Or maybe you're secure
E                        A
  You double down with a baby on the way
     E              A
It's what you worry for

E                  A
  I know I'ma gonna lay down and die
E                           A
  Someday somehow, a little later down the line
E                  A
  I know I'ma gonna lay down and die
E           A
  Why worry now?
         B                 A                E            A
That the wind will blow no matter where you are
   B
So hold your place

A E       B           E                A
  Stay today 'cause tomorrow comes for sure
          E                            B
I'm gonna live (I'm gonna live) 'til I die ('til I die)
          A                        E
Until the blurry-eyed worry's gone by
E       B           E              A
Stay today 'cause tomorrow's at my door
          E                            B
I'm gonna live (I'm gonna live) 'til I die ('til I die)
          A                        E
Until the blurry-eyed worry's gone by

(solo)

e|---------------------------------------------------------------------------|
B|---------------------------------------------------------------------------|
G|-----------------------------------9--9----9--9----------------------------|
D|-6-6-6-6-6-4-4-4-6-6-6-6-6-4-4-4-2-9--9----9--9----------------------------|
A|-0-0-0-0-0-0-0-0-0-0-0-0-0-0-0-0-0-7--7----7--7-----(x3)-------------------|
E|---------------------------------------------------------------------------|


e|---------------------------------------------------------------------------|
B|---------------------------------------------------------------------------|
G|---------------------------------------------------------------------------|
D|-6-6-6-6-6-4--6-6-6-6-6-4--------------------------------------------------|
A|-0-0-0-0-0-0--0-0-0-0-0-0--------------------------------------------------|
E|---------------------------------------------------------------------------|

  E       B           E                A
  Stay today 'cause tomorrow comes for sure
          E                            B
I'm gonna live (I'm gonna live) 'til I die ('til I die)
          A                        E
Until the blurry-eyed worry's gone by
E       B           E              A
Stay today 'cause tomorrow's at my door
          E                            B
I'm gonna live (I'm gonna live) 'til I die ('til I die)
               E                             A
yeah i'm gonna live (I'm gonna live) 'till I die oh oh
          E                             B
I'm gonna live (I'm gonna live) 'till I die ('till I die)
          A                        E
Until the blurry-eyed worry's gone by
Tap to rate this tab
 
# A B C D E F G H I J K L M N O P Q R S T U V W X Y Z