Song name
# A B C D E F G H I J K L M N O P Q R S T U V W X Y Z

Bronze Radio Return - Rough Town tab

Standard Tuning EADGBe

The Chorus is Em G C


the guitar riff

e--------------------------------------------------------------------------------------|
B--------------------------------------------------------------------------------------|
G-------4---4---4---4---5---5---5---5---0---0---0---0---0---0---0---0------------------|
D-----5---5---5---5---7---7---7---7---2---2---2---2---2---2---2---2--------------------|
A-----------------------------------------------------------------------2---2---2---2--|
E----------------------------------------------------------------------3---3---3---3---|


e--------------------------------------------------------------------------------------|
B--------------------------------------------------------------------------------------|
G--------------------------------------------------------------------------------------|
D--2---2---2---2-----------------------------------------------------------------------|
A-3---3---3---3---2---2---2---2---2---2---2---2----------------------------------------|
E-----------------3---3---3---3---3---3---3---3----------------------------------------|


the riff repeats throughout the song
Tap to rate this tab
# A B C D E F G H I J K L M N O P Q R S T U V W X Y Z