Song name
# A B C D E F G H I J K L M N O P Q R S T U V W X Y Z

Bronze Radio Return - Up On And Over tab

Artist: Bronze Radio Return
Song: Up, On, And Over
Album, Up, On, And Over
Tuning: Standard

Verse: Palm muted
------------------------------------------------------------------------|
-7-7-7-4-4--4----12-12--12-12--12---12-12--12-12--12--------------------|
-7-7-7-5-5--5----12-12--12-12--12---12-12--12-12--12--------------------|
------------------------------------------------------------------------|
------------------------------------------------------------------------|
------------------------------------------------------------------------|

-5-5-5-7-7--7---10-10-10------------------------------------------------|
-5-5-5-7-7--7---10-10-10-12-12-12--12-12--12--12-12--12-12--12----------|
--------------------------12-12-12--12-12--12--12-12--12-12--12---------|
------------------------------------------------------------------------|
------------------------------------------------------------------------|
------------------------------------------------------------------------|

Chorus
------------------------------------------------------------------------|
------------------------------------------------------------------------|
-2-2-2-4-4--2-2-2-4-4--2-2-2-4-4-- 5-5-5-5-5-5-5-5----------------------|
-2-2-2-4-4--2-2-2-4-4--2-2-2-4-4-- 5-5-5-5-5-5-5-5----------------------|
------------------------------------3-3-3-3-3-3-3-3---------------------|
------------------------------------------------------------------------|x2

------------------------------------------------------------------------|
------------------------------------------------------------------------|
-4-4-4-2-2-2-2-2--5-5-5-5-5-5-5-5--4-4-4-2-2-2-2-2----------------------|
-4-4-4-2-2-2-2-2--5-5-5-5-5-5-5-5--4-4-4-2-2-2-2-2- 5-5-5-5-5-5---------|
-------------------3-3-3-3-3-3-3-3-------------------5-5-5-5-5-5--------|
------------------------------------------------------3-3-3-3-3-3-------|
Tap to rate this tab
 
# A B C D E F G H I J K L M N O P Q R S T U V W X Y Z