Song name
# A B C D E F G H I J K L M N O P Q R S T U V W X Y Z

Brooke Fraser - Lifeline tab

INTRO (repeat a few times)
|-----10-9----12-12---------9-9--------9-9-9-10-10-10-9----12-12--------9-9---------9-9-9-10-10------|
|-----------10--------10-10------10-10---------------------10--------10-10------10-10----------------|
|----------------------------------------------------------------------------------------------------|
|----------------------------------------------------------------------------------------------------|
|----------------------------------------------------------------------------------------------------|
|----------------------------------------------------------------------------------------------------|

VERSE (0:37)
|-------------------------------------------------------------------------------------|
|-------------------------------------------------------------------------------------|
|-------------------2-(2)---------------------------------------2-(2)-----------------|
|---4-(4)---2-(2)---------0-(0)----2--2------4-(4)---2-(2)--------0-(0)-----2---------|
|--------------------------------------0----------------------------------------0-----|
|-------------------------------------------------------------------------------------|

PRE-CHORUS (1:03) (repeat a few times) (marked with () repeat x16 and with [] repeat x8 )
|---------------------------------------------------------------------------|
|---10-7-8-10-7-8-10-(10)--[8]-7-8-10-7-8-10-7-8-10-(10)--[8]-7-8-----------|
|-------------------------(7)--[7]----------------------------(7)--[7]------|
|---------------------------------------------------------------------------|
|---------------------------------------------------------------------------|

BRIDGE (1:41)
|-----------------------------------------------------------------------------------------|
|--------------10-(10)-10/3-3---------------------------8-(8)-8/3-3-----------------------|
|----7-(7)------------------------0-(0)---------7-(7)---------------------0-(0)-----------|
|-----------------------------------------------------------------------------------------|
|-----------------------------------------------------------------------------------------|
|-----------------------------------------3-(3)-----------------------------------3-(3)---|

VERSE (2:07)

PRE-CHORUS (2:32) (repeat a few times)

OUTRO (3:11)
|--------------------------------|
|--------------------------------|
|-----7~----6~-----7~------------|
|-----7~----6~-----7~----5~------|
|-----5~----4~-----5~----5~------|
|---------------------------3~---|
Tap to rate this tab
 
# A B C D E F G H I J K L M N O P Q R S T U V W X Y Z