Song name
# A B C D E F G H I J K L M N O P Q R S T U V W X Y Z

Brooke Fraser - Seeds tab

This song uses two guitars, one up an octave, so see the bottom of the page for the tab 
the higher part that's played with the capo on the third fret. Also, the chorus' chords 
all with the capo on the third fret, so really, F is G# etc.

Intro/verse:

E|-------------------------------------------------------|
B|------1------------------------------------------------|
G|--2--------2-----0---3---0---------3------------3------|
D|-------------------------------3-------3----3-------3--|    X4
A|-------------------------------------------------------|
E|-------------------------------------------------------|


(Contine through verse)

Night
Field of stars above us
You pick one
We frame it with our fingers intertwined * (see bottom of page)


Seeds of every generation
Between our hands
And the promise to teach you the little I have learned *
So far

//CHORUS//
F
Child
      Am       G      F
What will you live to do?
      Am     G        F
What have I left for you?
       Am      G     D  F
What will we leave behind?

You
Learning as you're growing
Not yet knowing
The world isn't always quite as beautiful *
As it is now

//CHORUS//

//INSTRUMENTAL// (Continue chords from chorus)

E|--------0----3--------------3------0----------------|
B|----1--------------0----3------1-------1---h1--1----|
G|----------------------------------------------------|
D|----------------------------------------------------|   X2
A|----------------------------------------------------|
E|----------------------------------------------------|

E|--------0----3--------------3---------0---3---0--------|
B|----1--------------0----3---------3--------------3---1-|
G|-------------------------------------------------------|
D|-------------------------------------------------------|
A|-------------------------------------------------------|
E|-------------------------------------------------------|


Night
Field of stars above us
I pick one and name it for you
And all who are to come


*

E|------------------------------------------------------|
B|------------------------------------------------------|
G|------1------------1------------1--------------1------|
D|--1--------1---1-------1---1---------1----1--------1--|
A|------------------------------------------------------|
E|------------------------------------------------------|

For "so far" and "as it is now" just play this open string.


(Capo third fret)

Intro/verse:

E|---2----5----2----0----3----0--------3------------3------|
B|---------------------------------3-------3----3-------3--|
G|---------------------------------------------------------|
D|---------------------------------------------------------|   X4
A|---------------------------------------------------------|
E|---------------------------------------------------------|

And the * bit for the third fret is just the same except played on the E and B strings 
than D and G
Tap to rate this tab
 
# A B C D E F G H I J K L M N O P Q R S T U V W X Y Z