Song name
# A B C D E F G H I J K L M N O P Q R S T U V W X Y Z

Brooke Fraser - Indelible tab

No Capo

h= hammer on
p= pull off
s=slide


Intro

e-------------------------------------------------------------2---3-|
b---------------3----0-----0h3p0---------------------3----3---------|
g--0-----0--2-----0----0---------0------0-----0--2-----0----0---0---|
d----2--------0--------------------0h2----2--------0----------------|
a--------------------3---3--------------------------------2---3---3-|
E--0---0----2---------------------------0---0----2------------------|


e-------------------------------------------------------------2---3---|
b---------------3----0-----0-------------------------3----3---------0-|
g--0-----0--2-----0----0-----0----------0-----0--2-----0----0---0-----|
d----2--------0---------------------------2--------0------------------|
a--------------------3---3------3-------------------------2---3---3---|
E--0---0----2----------------------0----0---0----2--------------------|



Verse 1

Walk along here...
e--------------------------------------------------------------2---3-------|
b---------------3----3---2---3------------------------3----3---------0-----|
g--0-----0--2-----0----0---0----0--------0-----0--2-----0----0---0-----0---|
d----2--------0-------------------0--------2--------0----------------------|
a--------------------2---3---3------0h2--------------------2---3---3-------|
E--0---0----2----------------------------0---0----2------------------------|


I can't place you...
e------------------------------------------------------------------------|
b---------------3----3---2---3------------------------3----3---2---3-----|
g--0-----0--2-----0----0---0----0--------0-----0--2-----0----0---0---0---|
d----2--------0-------------------0--------2--------0------------------0-|
a--------------------2---3---3------0h2--------------------2---3---3-----|
E--0---0----2----------------------------0---0----2----------------------|


How could someone so beautiful...
e--------------------------------------------------------------2---3-----|
b---------------3----3---2---3------------------------3----3---------0---|
g--0-----0--2-----0----0---0----0--------0-----0--2-----0----0---0-----0-|
d----2--------0-------------------0--------2--------0--------------------|
a--------------------2---3---3------0h2--------------------2---3---3-----|
E--0---0----2----------------------------0---0----2----------------------|


Won't you hold me....
e--------------------------------------------------------------2---3-----|
b---------------3----3---2---3------------------------3----3---------0---|
g--0-----0--2-----0----0---0----0--------0-----0--2-----0----0---0-----0-|
d----2--------0-------------------0--------2--------0--------------------|
a--------------------2---3---3------0h2--------------------2---3---3-----|
E--0---0----2----------------------------0---0----2----------------------|




Chorus

For the first time I see your face...
e--3-------3-----3-----2--------2-----2---|s3  Every..
b-------------------0---------------------|
g-----0-------------------0---------------|
d--2-----2-----2-------0-----0-----0------|
a-----------------------------------------|
E-----------------------------------------|

thing else around me will fade...
e-3--------3------3-----2--------2--2h3p0--|
b-------------------0----------------------|
g----0---------------------0---------------|
d-2-----2--2---2--------0-----0--0---------|
a------------------------------------------|
E------------------------------------------|


And I'll be struck full.....
e-3--------3------3-----2--------2----2----3-------3----3---2-------3----3---|
b-------------------0-------------------0------------------------------------|
g----0---------------------0------------------0-----------0---0------------0-|
d-2-----2--2---2--------0-----0--0--0----------------------------------------|
a------------------------------------------3----3--3--3-----3----3--3--3-----|
E----------------------------------------------------------------------------|

(Intro)

Verse 2
(same as verse 1)

Chorus x 2


This is my first tab!  The verses are pretty dead on, the chorus could be better but it 
works.  Hope you enjoy this tab, let me know what you think!
Tap to rate this tab
 
# A B C D E F G H I J K L M N O P Q R S T U V W X Y Z