Song name
# A B C D E F G H I J K L M N O P Q R S T U V W X Y Z

Brooke Fraser - Betty tab

CAPO 8

E|-----------0----2----2----2------|
B|--0------------------------------|
G|------0--------------------------|
D|----------------0----------------|  INTRO AND VERSE
A|---------------------------------|
E|--3------------------------------|

                     A
in the shape of Canada

A

E|-----------------------------------------|
B|---2--------------2--------------2-------|
G|--------2--------------2--------------2--|
D|-------------2--------------2------------|
A|---0-------------------------------------|
E|-----------------------------------------|

         Em
That you try to keep a secret

Em

E|-----------------------------------|
B|---0-----------0-----------0-------|
G|-------0-----------0-----------0---|
D|-----------2-----------2-----------|
A|-----------------------------------|
E|---0-------------------------------|

REPEAT

THEN..

                     A
before they wander off

A

E|-----------------------------------------|
B|---2--------------2--------------2-------|
G|--------2--------------2--------------2--|
D|-------------2--------------2------------|
A|---0-------------------------------------|
E|-----------------------------------------|

         Em                 Bm7
to hide inside their sockets

Em

E|-----------------------------------|
B|---0-----------0-----------0-------|
G|-------0-----------0-----------0---|
D|-----------2-----------2-----------|
A|-----------------------------------|
E|---0-------------------------------|

Bm7
E|-------------------------------------------------|
B|---3--------3------3-----3--------3--------3-----|
G|------2--------2------2-----2--------2--------2--|
D|---------4--------4------------4--------4--------|
A|---2--------2------------2--------2--------------|
E|-------------------------------------------------|

Chorus:

G D Asus Em
G D Asus Bm7 Em
G D Asus Em
G D Intro

Bm7...
Bridge:

G Asus Bm7 D
G Asus Bm7
G Asus Bm7 D
G Asus D 

Chorus
Tap to rate this tab
 
# A B C D E F G H I J K L M N O P Q R S T U V W X Y Z