Guitaretab - guitar tabs
Song name
# A B C D E F G H I J K L M N O P Q R S T U V W X Y Z

Brooks And Dunn - Hard Workig Man tab

Brooks and Dunn - Hard Working Man (lead)

By axehappy

I'm not too sure about the postioning of the intro...
I think its played lower down the neck, but I found it easier to play
in a higher position, so that's how I tabbed it.

***********************************************************************


INTRO (similar pattern continues through verse)


E----------------------------------------------------------------|
B----------------------------------------------------------------|
G------------------------------------10-8-9----------------------|
D--------------10-----10-------------10-8-8--10--------------10--|
A--8/10-10-12--10--12-10-10-10-12-10---------10-12-10-10--12-10--|
E--6/8--8--8-8-8-8-8--8--8--8--8--8----8---8-8--8--8--8-8-8--8---|

[ Tab from: http://www.guitaretab.com/b/brooks-and-dunn/105101.html ]
E---------------------------------------------------------------|
B---------------------------------------------------------------|
G-------------------------------------------------------10-8-9--|
D---------------------10----------10-----10-------------10-8-8--|
A----10-12------10-12-10------12--10--12-10-10-10-12------------|
E--8-8--8--10/12----------8-8-8-8-8-8-8--8--8--8--8--6/8--8-----|


E-------------------------------|
B-------------------------------|
G-------------------------------|
D--10---------------------10\---|
A--10-12-10------10-12-10-10\---|
E--8--8--8--10/12---------------|

ENDING


E--------------------------------------------|
B--5-3---------------------------------------|
G--5-3-5-5-5-3-3-----------------------------|
D------5-4-3-0-1--3-3-3--3--5-4-3-1-3-1/2----|
A-----------------3-2-1--3---------------3---|
E----------------------4b--------------------|
Related for Hard Workig Man tab
Hard Workig Man chords by Brooks And Dunn