Song name
# A B C D E F G H I J K L M N O P Q R S T U V W X Y Z

Brooks And Dunn - Goin Under Gettin Over You tab

Intro 

E|--3-----3------------------|----------------------|
B|--3p5p3-3---5---3-----3---3|----------------------|
G|----------4-----2p4p2-2---2|-----0-2p4p2-0---0----|
D|------------------------5--|-0-2-----------2-0----|
A|---------------------------|----------------------|
E|---------------------------|----------------------|

Solo

E|--15-12p15p12----------------------------------------------------------|
B|--------------12p15p12-10p12----8---8-----8-8-7-7/12-12-10p12p10\8-8---|
G|-----------------------------7--7p9-7-----7-9--------------------------|
D|---------------------------------------10------------------------------|
A|-----------------------------------------------------------------------|
E|-----------------------------------------------------------------------|
Tap to rate this tab
# A B C D E F G H I J K L M N O P Q R S T U V W X Y Z