Song name
# A B C D E F G H I J K L M N O P Q R S T U V W X Y Z

Brooks And Dunn - Only In America tab

|----------------------------------------------------------|
|--0--0-0-0-0--0--------2--2-2-2-2--1--------4-------------|
|--1--1-1-1-1--0--------2--2-2-2-2--1--------4-------------|
|--2--2-2-2-2--0--------2--2-2-2-2--1--------4-------------|
|--2--2-2-2-2--0--------0--0-0-0-0--0--------0-------------|
|--0--0-0-0-0--0--------0--0-0-0-0--0--------0-------------|


|----------------------------------------------------------|
|--0--0-0-0-0--0--------2--2-2-2-2--1--------4~------------|
|--1--1-1-1-1--0--------2--2-2-2-2--1--------4~------------|
|--2--2-2-2-2--0--------2--2-2-2-2--1--------4~------------|
|--2--2-2-2-2--0--------0--0-0-0-0--0--------0-------------|
|--0--0-0-0-0--0--------0--0-0-0-0--0--------0-------------|


Standard tuning
Tap to rate this tab
# A B C D E F G H I J K L M N O P Q R S T U V W X Y Z