Song name
# A B C D E F G H I J K L M N O P Q R S T U V W X Y Z

Brooks And Dunn - Neon Moon tab

Gtr 1: Acous. Plays Chords
Gtr 2: Clean Tele

Intro/Verse (Main Riff)
 A                     D
e|----------------------||------------------|
B|----------------------||----------0-0-----|
G|o----------2-2-------o||--------------4-2-|
D|o---------------4-2--o||--0-0--4----------|
A|---0-0--4-------------||------------------|
E|----------------------||------------------|

Verse
      A      
     When the sun goes down on my side of town

      that lonesome feeling comes to my door 
              D                    A 
     And it turns my world....... blue.
       A
     There's a run down bar across the railroad tracks

      I got a table for two way in the back 
       D                                    A  
     Where I sit alone...... and think of losin' you. 
                    E                                  A 
     I spend most every night beneath the lights of a neon moon.

Walk-up to Chorus
e|----------------------------|
B|----------------------------|
G|----------------------------|
D|----------------------------|
A|--0-0--5p-0--7p-0--9p-0-----|
E|----------------------------|

CHORUS
       D                       E 
     If you lose your one and only
                     D                  E 
     There's always room here for the lonely
                     D                         E
     To watch your broken dreams dance in and out of the beams
                A( Back to main riff)
     Of a neon moon. 
(Chorus Chords) Slide between the chord changes
_D_____E_
10    12    
10    12    
11    13    (Arrpegio these chords throughout Chorus)
12    14     
X     x     

Solo (all slides are behind the beat ghost notes)
e|----------------------------|------------------------------|
B|----------------------------|------------------------------|
G|-------4s-6--6s 4-4s-2--2-2-|-------4s-6-6s-4-2--2h-4--2---|
D|--4--2----------------------|--4--2------------------------|
A|----------------------------|------------------------------|
E|----------------------------|------------------------------|

e|-----------------------5h-7p-5~-|
B|------5-------8---5s-7----------|
G|-4s-6----6s-9-------------------|
D|--------------------------------|
A|--------------------------------|
E|--------------------------------|

e|--------------------------|------------------------|
B|-5s-7--7-7~--7-7~-7s-5--5-|-3s-5s-3----------------|
G|-6s-7--7-7---7-7--7s-6--6-|-4s-6s-4--4--2------2---|
D|--------------------------|---------------2s-4-----|
A|--------------------------|------------------------|
E|--------------------------|------------------------|
Tap to rate this tab
 
# A B C D E F G H I J K L M N O P Q R S T U V W X Y Z