Song name
# A B C D E F G H I J K L M N O P Q R S T U V W X Y Z

Brooks And Dunn - Play Something Country tab

e----------------------------------------------------------------------------|
B-----------3--3--------3-----------3--------3-------------------------------|
G--0--3--5--------5--3-----0--3--5-----5--3----------------------------------|
D----------------------------------------------------------------------------|
A----------------------------------------------------------------------------|
E----------------------------------------------------------------------------|

e---------------------------------------------------------------------------|
B-----------3--3--------3-----------3---------------------------------------|
G--0--3--5--------5--3-----0--3--5-----5--3--0------------------------------|
D---------------------------------------------------------------------------|
A---------------------------------------------------------------------------|
E---------------------------------------------------------------------------|
Tap to rate this tab
# A B C D E F G H I J K L M N O P Q R S T U V W X Y Z