Song name
# A B C D E F G H I J K L M N O P Q R S T U V W X Y Z

Brooks And Dunn - My Heart Is Lost To You tab

My Heart is Lost ot You (Intro) 

I don't know, I just could'nt get the other tab to sound
right when I played.  There are some spots I'm not sure
about and I marked them with a "?" above that part.  And 
there may be some hammer-ons and slides in there somewhere 
also.

Capo 1st

Intro

E----------------------------------------------------------|
B----------------------------------------------------------|
G----------------------------------------------------------|
D-----0-2-0-----0-------2-0-------0-------0-2-0-----0------|
A-0-3-------3-2---3-0-------3-3-0-----0-3-------3-2---3-0--|
E----------------------------------------------------------|
    ?           ?        ?
E----------------------------------------------------------|
B---------------------------------------------0-1----------|
G-----------------------------------------0-2--------------|
D----------------------0-0----------0-2-3------------------|
A-0-----3-2-0----0-2-3--------0-2-3------------------------|
E---4-0--------4-------------------------------------------|
Tap to rate this tab
# A B C D E F G H I J K L M N O P Q R S T U V W X Y Z