Song name
# A B C D E F G H I J K L M N O P Q R S T U V W X Y Z

Brooks And Dunn - Proud Of The House We Built tab

e|----------------------------------|
B|------7-6---------7-6-9^9-11^11p9-|
G|--6-8---------6-8-----------------|
D|-8----------8---------------------|
A|----------------------------------|
E|----------------------------------|

                                    I Dropt to my Knees.....
e|--------------------------------------|
B|------7-6---------7-6-9^9-11^11p9p11--|
G|--6-8---------6-8---------------------|
D|-8----------8-------------------------|
A|--------------------------------------|
E|--------------------------------------|


VIOLA:P
Tap to rate this tab
 
# A B C D E F G H I J K L M N O P Q R S T U V W X Y Z