Song name
# A B C D E F G H I J K L M N O P Q R S T U V W X Y Z

Brooks Garth - Hard Luck Woman tab

Help us improve GuitareTab! Take a short survey!
Simplemente trat de dejar la cancin lo ms perfecta posible
y creo que es lo ms fidedigno a la versin original, de cualquier
forma se aceptan comentarios amigos. Esta rola la quiero dedicar
a varias personas, primeramente y sobre todo a mi ex novia Idun, sencillamente es una 
que aunque no sienta lo mismo por ella
siempre inspirar algo en mi, tanto como para poder sacar una cancin,
por eso y mas le doy las gracias. Segundo a una mujer llamada Carmen,
la persona que sin temor a decir mentir mentiras es de las personas
que mas me ha querido en toda mi vida y a la que en verdad daria
cualquier cosa por sentir lo que ella siente o sintio por mi, pero
con toda sinceridad puedo decir que la AMO, ella sabe porque y
siempre lo har, le deseo lo mejor en su vida porque se lo merece,
ella tambien cambio mi vida por completo.Y por ultimo quiero dedicarsela
a mi amigo Poncho porque gracias a el supe como se llamaba esta rola, quisimos sacarla 
de graduarnos de la universidad pero por
diversos motivos no se pudo hasta hoy que la saqu, espero tocarla
con l algn dia ya que sera un honor tocar a su lado. Siempre fue
nuestro sueo hacerlo, cada quien dedicandosela a las personas que
inspiran nuestros sentimientos pero juntos, suerte Ponchito en
todo lo que hagas en el futuro. YEAH MAN!!!
Disfrutenla!!!.

Hard Luck Woman - Kiss

Intro:

Guitar One

E||----------------|
B||----------------|
G||----------------|
D||---------1------|
A||-----2-4---4----|
E||--2-4-----------|

Guitar Two

E||------------------|
B||----------4-------|
G||------4-6---6-----|
D||--4-6-------------|
A||------------------|
E||------------------|

Guitar Two

E||---------------------------------------------|
B||------7---7---7--7/5-5--4-4-4-4-4-4-4-4-4-4--|
G||--6/8---8---8----8/6-6--4-4-4-4-4-4-4-4-4-4--|
D||---------------------------------------------|
A||---------------------------------------------|
E||---------------------------------------------|

                              Guitar One
                           E||-------------------|
                           B||-------------------|
                           G||-------------------|
                           D||--4/6-4------------|
                           A||--------6-4--------|
                           E||------------7------|

Guitar Two

E||------------------------------------------------------------|
B||--4/5-5-5--5/7-7-7--5-5-5-4-5/7-7-7--4-4-4-4-4-4-4-4-4-4-4--|
G||--4/6-6-6--6/8-8-8--6-6-6-5-6/8-8-8--4-4-4-4-4-4-4-4-4-4-4--|
D||------------------------------------------------------------|
A||------------------------------------------------------------|
E||------------------------------------------------------------|

                                            Guitar One

                                         E||-12/11----------11-|
                                         B||-------12----12-12-|
                                         G||----------11-------|
                                         D||-------------------|
                                         A||-------------------|
                                         E||-------------------|


INTRO cHORUS:

C#m B C#m D#m E F# B

Guitar Two

           C#m
If never I met you

Guitar One

E||--------------|
B||--------------|
G||--------------|
D||--------------|
A||-----2-4/6-4--|
E||-2-4----------|

                 B
I'd never have seen you cry

Guitar One

E||--------------|
B||--------------|
G||--------------|
D||--------------|
A||-----2-6/4-2--|
E||-2-4----------|

             C#m         D#m
If not for a first hello

Guitar One

E||--------------------|
B||--4/5-5-5--5/7-7-7--|
G||--4/6-6-6--6/8-8-8--|
D||--------------------|
A||--------------------|
E||--------------------|

       E            F#     B
We'd never have to say goodbye

Guitar One

E||---------------------------------------12/11-------|
B||5-5-5-4-5/7-7-7--4-4-4-4-4-4-4-4-4-4-4-------12----|
G||6-6-6-5-6/8-8-8--4-4-4-4-4-4-4-4-4-4-4---------11--|
D||---------------------------------------------------|
A||---------------------------------------------------|
E||---------------------------------------------------|

           C#m
If never I held you

Guitar One

E||--------------|
B||--------------|
G||--------------|
D||--------------|
A||-----2-4/6-4--|
E||-2-4----------|

                    B
My feelings would never show

Guitar One

E||--------------|
B||--------------|
G||--------------|
D||--------------|
A||-----2-6/4-2--|
E||-2-4----------|

                   C#m
It's time I start walkin'

Guitar One

E||--------------------|
B||--4/5-5-5--5/7-7-7--|
G||--4/6-6-6--6/8-8-8--|
D||--------------------|
A||--------------------|
E||--------------------|

D#m             E               F#       B
But there's so much that you'll never know

Guitar One

E||---------------------------------------12/11----11--|
B||5-5-5-4-5/7-7-7--4-4-4-4-4-4-4-4-4-4-4-------12-12--|
G||6-6-6-5-6/8-8-8--4-4-4-4-4-4-4-4-4-4-4----------11--|
D||----------------------------------------------------|
A||----------------------------------------------------|
E||----------------------------------------------------|

                   E    D#m  C#m
I keep tellin' you hard luck woman

            E    D#m  C#m    E  F#
You ain't a hard luck woman

B                        C#m
Rags, the sailor's only daughter

                E
A child of the water

    F#              B    C#m  E  F#
Too proud to be a queen

B
Rags, I really love ya

   C#m
I can't forget about you

            E    D#m  C#m
You'll be a hard luck woman

E             F#         B
Baby till you find your man

C#m       F#       C#m
Before I go let me kiss you

Guitar One

E||--------------|
B||--------------|
G||--------------|
D||--------------|
A||-----2-4/6-4--|
E||-2-4----------|

                   B
And wipe the tears from your eyes

Guitar One

E||--------------|
B||--------------|
G||--------------|
D||--------------|
A||-----2-6/4-2--|
E||-2-4----------|

              C#m      D#m
I don't wanna hurt you girl

Guitar One

E||--------------------|
B||--4/5-5-5--5/7-7-7--|
G||--4/6-6-6--6/8-8-8--|
D||--------------------|
A||--------------------|
E||--------------------|

    E            F#    B
You know I could never lie

Guitar One

E||---------------------------------------12/11-------|
B||5-5-5-4-5/7-7-7--4-4-4-4-4-4-4-4-4-4-4-------12----|
G||6-6-6-5-6/8-8-8--4-4-4-4-4-4-4-4-4-4-4---------11--|
D||---------------------------------------------------|
A||---------------------------------------------------|
E||---------------------------------------------------|

                   E    D#m  C#m
I keep tellin' you hard luck woman

            E    D#m  C#m
You ain't a hard luck woman

            E    D#m  C#m
You'll be a hard luck woman

E             F#        B    C#m  E  F#
Baby till you find your man

B                        C#m
Rags, the sailor's only daughter

                E
A child of the water

    F#              B    C#m  E  F#
Too proud to be a queen

B
Rags, I really love ya

   C#m
I can't forget about you

            E    D#m  C#m
You'll be a hard luck woman

E             F#         B
Baby till you find your man

            E    D#m  C#m
You'll be a hard luck woman

E             F#         B
Baby till you find your man

OUTRO

    C#m       B       C#m        B
Oh yeah, bye bye, so long, dont cry

Guitar One

E||------------------------------------|
B||------7---7---7--7/5-5--4--5/7-5-4--|
G||--6/8---8---8----8/6-6--4--6/8-6-4--|
D||------------------------------------|
A||------------------------------------|
E||------------------------------------|

                   C#m                B
Im just packin my bags, whoo, leavin you

Guitar One

E||------------------------------------|
B||------7---7---7--7/5-5--4--5/7-5-4--|
G||--6/8---8---8----8/6-6--4--6/8-6-4--|
D||------------------------------------|
A||------------------------------------|
E||------------------------------------|

    C#m                                B
Bye bye, bye bye, bye bye, baby, dont cry

Guitar One

E||------------------------------------|
B||------7---7---7--7/5-5--4--5/7-5-4--|
G||--6/8---8---8----8/6-6--4--6/8-6-4--|
D||------------------------------------|
A||------------------------------------|
E||------------------------------------|

                 C#m         B
I gotta keep on movin, yeah movin

Guitar One

E||------------------------------------|
B||------7---7---7--7/5-5--4--5/7-5-4--|
G||--6/8---8---8----8/6-6--4--6/8-6-4--|
D||------------------------------------|
A||------------------------------------|
E||------------------------------------|

             C#m
Bye, bye my baby

Guitar One

E||------------------------------------|
B||------7---7---7--7/5-5--4--5/7-5-4--|
G||--6/8---8---8----8/6-6--4--6/8-6-4--|
D||------------------------------------|
A||------------------------------------|
E||------------------------------------|

           B
Ooh, dont cry, lady, oh

C#m  B

----------------------------------------------------------------
"Nuestro tiempo fue efmero pero grabaste tu nombre en mi alma,
lograste encender la flama extinguida".
----------------------------------------------------------------
Related for Hard Luck Woman tab