Guitaretab - guitar tabs
Song name
# A B C D E F G H I J K L M N O P Q R S T U V W X Y Z

Brooks Garth - You May Be Right tab

Billy Joel - You May Be Right
Tabbed by http://www.youtube.com/user/BaddGuitar

(sound effect - Breaking glass)

Intro Riff:  (try to let the A string ring throughout)
-----3-2--0---3-2--0---3-2--0---3-2--0---3-2--0---3-2--0-----|
---------3--------3--------3--------3--------3--------3------|
------------2--------2--------2--------2--------2--------2---|
-------------------------------------------------------------|
--0----------(0)------(0)-------(0)------(0)------(0)--------|
-------------------------------------------------------------|

Verse 1
A
Friday night I crashed your party
A
Saturday I said I'm sorry
A                               E
Sunday came and trashed me out again
      Bm
I was only having fun
       G
Wasn't hurting anyone
       E                                    A (Intro Riff)
And we all enjoyed the weekend for a change

Verse 2
A
I've been stranded in the combat zone
A
I walked through Bedford Sty alone
A                              E
Even rode my motorcycle in the rain
        Bm
And you told me not to drive
      G
But I made it home alive
       E                                A
So you said that only proves that I'm insane

                  E                                  A
-------------------------------------------------------------------------|
-------------------------------------------------------------------------|
---------------------------------------------------------------------2---|
----------------------------------2--------------------------2-2-4-2-2---|
--------------------------2-2-4-2-2------------------0-0-3-4---------0---|
------------------0-0-3-4---------0--------------------------------------|
You may be right                      I may be crazy

       E             D              F#m         A
But it just may be a lunatic you're looking for

                  E                                  A
-------------------------------------------------------------------------|
-------------------------------------------------------------------------|
---------------------------------------------------------------------2---|
----------------------------------2--------------------------2-2-4-2-2---|
--------------------------2-2-4-2-2------------------0-0-3-4---------0---|
------------------0-0-3-4---------0--------------------------------------|
Turn out the light                 Don't try to save me

           D               E                    A  (Intro Riff)
You may be wrong for all I know, but you may be right

Verse 3

A
Remember how I found you there
A
Alone in your electric chair
A                                E
I told you dirty jokes until you smiled
         Bm
You were lonely for a man
       G
I said take me as I am
           E                              A (Intro Riff)
'Cause you might enjoy some madness for a while


Verse 4

A
Now think of all the years you tried to
A
Find someone to satisfy you
A                          E
I might be as crazy as you say
   Bm
If I'm crazy then it's true
          G
That it's all because of you
        E                          A
And you wouldn't want me any other way
[ Tab from: http://www.guitaretab.com/b/brooks-garth/2474.html ]
                  E                                  A
-------------------------------------------------------------------------|
-------------------------------------------------------------------------|
---------------------------------------------------------------------2---|
----------------------------------2--------------------------2-2-4-2-2---|
--------------------------2-2-4-2-2------------------0-0-3-4---------0---|
------------------0-0-3-4---------0--------------------------------------|
You may be right                      I may be crazy

       E             D              F#m         A
But it just may be a lunatic you're looking for

                  E                                  A
-------------------------------------------------------------------------|
-------------------------------------------------------------------------|
---------------------------------------------------------------------2---|
----------------------------------2--------------------------2-2-4-2-2---|
--------------------------2-2-4-2-2------------------0-0-3-4---------0---|
------------------0-0-3-4---------0--------------------------------------|
Too late to fight                   too late to change me

           D               E                    A  (Intro Riff)
You may be wrong for all I know, but you may be right


Solo

------5-----5-----5-----5-----5-----5-----5-----5-----5-----5-|
--3/5---3/5---3/5---3/5---3/5---3/5---3/5---3/5---3/5---3/5---|
--------------------------------------------------------------|
--------------------------------------------------------------|
--------------------------------------------------------------|
--------------------------------------------------------------|

----5-7-9--11-11-11-11-11-9--11-11-11-11-11-11-----9------------|
--5----------------------------------------------9---12---------|
--------------------------------------------------------11b-9-9-|
----------------------------------------------------------------|
----------------------------------------------------------------|
----------------------------------------------------------------|

Bm     G     E    A
(sax solo)


                  E                                  A
-------------------------------------------------------------------------|
-------------------------------------------------------------------------|
---------------------------------------------------------------------2---|
----------------------------------2--------------------------2-2-4-2-2---|
--------------------------2-2-4-2-2------------------0-0-3-4---------0---|
------------------0-0-3-4---------0--------------------------------------|
You may be right                      I may be crazy

       E             D              F#m         A
But it just may be a lunatic you're looking for

                  E                                  A
-------------------------------------------------------------------------|
-------------------------------------------------------------------------|
---------------------------------------------------------------------2---|
----------------------------------2--------------------------2-2-4-2-2---|
--------------------------2-2-4-2-2------------------0-0-3-4---------0---|
------------------0-0-3-4---------0--------------------------------------|
Turn out the lights                 donít try to save me

           D               E                    A  (Intro Riff)
You may be wrong for all I know, but you may be right

(Intro Riff - repeat and fade)
You may be wrong but you may be right
Related for You May Be Right tab