Song name
# A B C D E F G H I J K L M N O P Q R S T U V W X Y Z

Brother Firetribe - Wildest Dreams tab

First piano intro and then starts with these

e----------------------------|
b----------------------------|
g--7-------5--7-7--5--7-7-5--|
d--7-------5--7-7--5--7-7-5--|
a--5-------3--5-5--3--5-5-3--|
D----------------------------|

Verse

e------------------------------------------------------|
b--6--6--5--5--3--3------------------------------0--0--|
g--3--3--3--3--3--3--5-5-5-5-5--5--5-5-5-5-5--5--0--0--|
d--------------------3-3-3-3-3--3--3-3-3-3-3--3--------| x4
a------------------------------------------------------|
D------------------------------------------------------|


Pre-chorus
 PM.................................................................
e-------------------------------------------------------------------|
b-------------------------------------------------------------------|
g-------------------------------------------------------------------|
d------------------5-5-5-5-5-5-5-5-3-3-3-3-3-3-3-3-3-3-3-3-3-3-3-3--|
a--0-0-0-0-0-0-0-0-3-3-3-3-3-3-3-3-1-1-1-1-1-1-1-1-1-1-1-1-1-1-1-1--|
D--0-0-0-0-0-0-0-0--------------------------------------------------|
 PM................................................
e-------------------------------------------------------------------|
b-------------------------------------------------------------------|
g--------------------------------------------------5-5-5-5-5-5-5-5--|
d--2-2-2-2-2-2-2-2-2-2-2-2-2-2-2-2-5-5-5-5-5-5-5-5-5-5-5-5-5-5-5-5--|
a--0-0-0-0-0-0-0-0-0-0-0-0-0-0-0-0-3-3-3-3-3-3-3-3-3-3-3-3-3-3-3-3--|
D-------------------------------------------------------------------|


Chorus
 PM................................................................
e------------------------------------------------------------------|
b------------------------------------------------------------------|
g------------------------------------------------------------------|
d------------------------------------------------------------------|
a--3-3-3-3-3-3-3-3-3-3-3-3-3-3-3-3-3-3-3-3-3-3-3-3-3-3-3-3-3-3-3-3-|
D--3-3-3-3-3-3-3-3-3-3-3-3-3-3-3-3-3-3-3-3-3-3-3-3-3-3-3-3-3-3-3-3-|
 PM................................................................
e------------------------------------------------------------------|
b------------------------------------------------------------------|
g------------------------------------------------------------------|
d----------------------------------3-3-3-3-3-3-3-3-5-5-5-5-5-5-5-5-| x2
a--0-0-0-0-0-0-0-0-0-0-0-0-0-0-0-0-1-1-1-1-1-1-1-1-3-3-3-3-3-3-3-3-|
D--0-0-0-0-0-0-0-0-0-0-0-0-0-0-0-0---------------------------------|


Bridge

e----------------------------|
b----------------------------|
g--7-------5--7-7--5--7-7-5--|
d--7-------5--7-7--5--7-7-5--|
a--5-------3--5-5--3--5-5-3--|
D----------------------------|


Verse2

e------------------------------------------------------|
b--6--6--5--5--3--3------------------------------0--0--|
g--3--3--3--3--3--3--5-5-5-5-5--5--5-5-5-5-5--5--0--0--|
d--------------------3-3-3-3-3--3--3-3-3-3-3--3--------| x2
a------------------------------------------------------|
D------------------------------------------------------|


Pre-chorus
 PM.................................................................
e-------------------------------------------------------------------|
b-------------------------------------------------------------------|
g-------------------------------------------------------------------|
d------------------5-5-5-5-5-5-5-5-3-3-3-3-3-3-3-3-3-3-3-3-3-3-3-3--|
a--0-0-0-0-0-0-0-0-3-3-3-3-3-3-3-3-1-1-1-1-1-1-1-1-1-1-1-1-1-1-1-1--|
D--0-0-0-0-0-0-0-0--------------------------------------------------|
 PM................................................
e-------------------------------------------------------------------|
b-------------------------------------------------------------------|
g--------------------------------------------------5-5-5-5-5-5-5-5--|
d--2-2-2-2-2-2-2-2-2-2-2-2-2-2-2-2-5-5-5-5-5-5-5-5-5-5-5-5-5-5-5-5--|
a--0-0-0-0-0-0-0-0-0-0-0-0-0-0-0-0-3-3-3-3-3-3-3-3-3-3-3-3-3-3-3-3--|
D-------------------------------------------------------------------|


Chorus2
 PM................................................................
e------------------------------------------------------------------|
b------------------------------------------------------------------|
g------------------------------------------------------------------|
d------------------------------------------------------------------|
a--3-3-3-3-3-3-3-3-3-3-3-3-3-3-3-3-3-3-3-3-3-3-3-3-3-3-3-3-3-3-3-3-|
D--3-3-3-3-3-3-3-3-3-3-3-3-3-3-3-3-3-3-3-3-3-3-3-3-3-3-3-3-3-3-3-3-|
 PM................................................................
e------------------------------------------------------------------|
b------------------------------------------------------------------|
g------------------------------------------------------------------|
d----------------------------------3-3-3-3-3-3-3-3-5-5-5-5-5-5-5-5-| x2
a--0-0-0-0-0-0-0-0-0-0-0-0-0-0-0-0-1-1-1-1-1-1-1-1-3-3-3-3-3-3-3-3-|
D--0-0-0-0-0-0-0-0-0-0-0-0-0-0-0-0---------------------------------|

"Bridge"

e-----------------------|
b-----------------------|
g--7--------------------|
d--7--------------------|
a--5--------------------|
D-----------------------|


Break

e------------------------------------------------|
b------------------------------------------------|
g-------------------------5----------------------|
d--3----------------------5----------------------|
a--3----------------------3----------------------|
D--3---------------------------------------------|

e-----------------------------------|
b-----------------------------------|
g-------------------------3---------|
d--0----------------------3---------|
a--0----------------------1---------|
D--0--------------------------------|

Solo begins now
e------------------------------|
b------------------------------|
g--5---------------------------|  During the solo
d--5---------------------------|  you can play the chorus
a--3---------------------------|  riff
D------------------------------|

Solo

e------------------------------|
b--10b------10------p6-6h8-8---|
g------------------------------|
d------------------------------|
a------------------------------|
D------------------------------|

e-----------------------------------------------|
b--/11---10---------13-13---11p10---------------|
g------------12p10-----------------12p10--10----|
d-----------------------------------------------|
a-----------------------------------------------|
D-----------------------------------------------|

e-------------------------------------------------|
b----------10h11h13p11p10--------10h11h13p11p10---|
g--12-10h12--------------12-10h12--------------12-|
d-------------------------------------------------|
a-------------------------------------------------|
D-------------------------------------------------|

e------------------------------------------------------|
b--13p11p10--13p11p10--11-10-------------10b-----------|
g----------12--------12------13-12-11-10---------------|
d------------------------------------------------------|
a------------------------------------------------------|
D------------------------------------------------------|
		     *bend release
e--------------------------------|
b--10------/13b------13br---13---|
g--------------------------------|
d--------------------------------|
a--------------------------------|
D--------------------------------|


Chorus3
 PM................................................................
e------------------------------------------------------------------|
b------------------------------------------------------------------|
g------------------------------------------------------------------|
d------------------------------------------------------------------|
a--3-3-3-3-3-3-3-3-3-3-3-3-3-3-3-3-3-3-3-3-3-3-3-3-3-3-3-3-3-3-3-3-|
D--3-3-3-3-3-3-3-3-3-3-3-3-3-3-3-3-3-3-3-3-3-3-3-3-3-3-3-3-3-3-3-3-|
 PM................................................................
e------------------------------------------------------------------|
b------------------------------------------------------------------|
g------------------------------------------------------------------|
d----------------------------------3-3-3-3-3-3-3-3-5-5-5-5-5-5-5-5-| x2
a--0-0-0-0-0-0-0-0-0-0-0-0-0-0-0-0-1-1-1-1-1-1-1-1-3-3-3-3-3-3-3-3-|
D--0-0-0-0-0-0-0-0-0-0-0-0-0-0-0-0---------------------------------|


Lead parts

3:29 bend and bend release
e--12b+br--10---------------|
b----------------13--13-----|
g---------------------------|
d---------------------------|
a---------------------------|
D---------------------------|

3:34
e--17b------17br--17--------17--15--13-13----12--12--12-13---15---13----|
b-----------------------------------------------------------------------|
g-----------------------------------------------------------------------|
d-----------------------------------------------------------------------|
a-----------------------------------------------------------------------|
D-----------------------------------------------------------------------|


Ending

e---------------------------------------------------------------|
b---------------------------------------------------------------|
g--3------------------------------------------------------------|
d--3------------------------------------3-----------------------|
a--1------------------------------------3-----------------------|
D---------------------------------------3-----------------------|


Tabbed by Wasuri93
Check out also my videos at Youtube :)
Tap to rate this tab
# A B C D E F G H I J K L M N O P Q R S T U V W X Y Z