Song name
# A B C D E F G H I J K L M N O P Q R S T U V W X Y Z

Brother - Darling Buds Of May chords

Highlighted       Show chord diagrams
BROTHER - DARLING BUDS OF MAY

Standard tuning

(Rhythm in intro/verse works best using barre chords)

INTRO:

A, D C, F (Fsus2) F (Fsus2)
F (Fsus2)

VERSE:

A               D            C
   I burned the kitchen down,   you told me ooh-wee-ooh
F
   we gotta get this right right now woah-oh-oh
A               D        C
   you try to shut me up,  i told her ooh-wee-oh
F
   we gotta get this right right now woah-oh-oh
A            D         C
and when you walk, and when you walk, i feel
F
so much better now
A            D         C
and when you walk, and when you walk, i feel
F
so much better now, because her birthday's in

CHORUS: (note: Dsus4 also works well in Dsus2's place)

Dsus2   Am
May, in May-ay-ay, it
F
is what it is, it is what is, her birthday's in
Dsus2   Am
May, in May-ay-ay, it
F
is what it is, it is, what it is

Am Am/G, Am/F#, F, E (or just the root 
notes A G F# F then Emajor)

POST-CHORUS MINI-SOLO BIT:

E-----------------------------------|
B-----------------------------------|
G---------5-7-7p5-------------------|
D----5h7---------7p5-5h75h7---------|
A-----------------------------------|
E-----------------------------------|



OTHER SOLO (after second chorus and in outro):

    Dsus2    Am           F
E--------------------------------------------------|
B-------------------------10-8-10-1010p8------8----|
G---------------------------------------9--7h9-9---|
D--------------------------------------------------|
A----------3--------3------------------------------|
E---5~~3h5---5~~-3h5-------------------------------|

    Am      Am/G    Am/F#   Am/F    E
E-----------------------------------121212121212s15151515s1212----|
B---15--15--13--13--11--11--10--10--------------------------------|
G-----14--14--14--14--14--14--14--14------------------------------|
D-----------------------------------------------------------------|
A-----------------------------------------------------------------|
E-----------------------------------------------------------------|

A     5776xx
D     x5777x
C     x3555x
F     x3321x
Fsus2 x3301x

Dsus2 xx0230
Am    x02210

Dsus4 xx0233
Tap to rate this tab
 
# A B C D E F G H I J K L M N O P Q R S T U V W X Y Z