Song name
# A B C D E F G H I J K L M N O P Q R S T U V W X Y Z

Brother - Fly By Nights tab

Song: Fly By Nights
Band: Brother newly renamed Viva Brother
Album: Famous First words

Intro

E-------------------------------------------------------|
B-------55---------------55------------------55---------|
D----------------0----------------0------------------0--|
G-----6--------6------6---------6---------6--------6----|
A---7--------7------7---------7--------7---------7------|
E-------------------------------------------------------|

E------------------x-|
B----------8---777-x-|
D--------9-----888-X-|
G-----10-------999-X-|
A--10----------999-X-|
E------------------X-|

Verse

E------------     ----------X-|
B--------22--     --3333-22-X-|
D--1111--220-     --5555-44-X-|
G--2222--220-  X3 --5555-44-X-|
A--2222----0-     --3333-22-X-|
E------------     ----------X-|
Tap to rate this tab
# A B C D E F G H I J K L M N O P Q R S T U V W X Y Z