Song name
# A B C D E F G H I J K L M N O P Q R S T U V W X Y Z

Brown Bird - For The Hard Road tab

Brown Bird is an amazing and sadly unheard-of band with a butt ton of really amazing 
songs, but of course, there are virtually no tabs for ANY of their songs.
But necessity is the mother of invention, right?
So it's pretty simple:

 e|-------------------------|
 B|-------------------------|
 G|-------------4-----------|
 D|-----6-5---6-----6-5---6-|
 A|-4-----------------------|
 E|-------------------------|

         And that repeats four times before:

 e|---------------------------------------------------------------------------|
 B|---------------------------------------------------------------------------|
 G|---------------------------------------------------------------------------|
 D|-------6-----------6-----------6-----------6-----------4-----------4-------|
 A|-----4-----4-----4-----4-----6-----6-----6-----6-----4-----4-----4-----4---|
 E|-5-----------5-----------4-----------4-----------2-----------2-----------2-|

         To do the slide that he does, start on about the 2 of the A string
         and slide to the 4.

         The rhythm is pretty easy to figure out by ear, but in case you
         want the hard count for it, it's in 6/8 time and is counted like so,
         with the asterisk being the beats that are not played on:


  |-1-*-3-4-*-6-7-*-


         And that's it. Nothing funny except for the random G# that he plays
       at the very beginning. Hope this helped! Please rate!

  http://www.brownbird.net/

  http://www.myspace.com/brownbird

  http://www.facebook.com/brownbirdmusic?v=app_19935916616
Tap to rate this tab
 
# A B C D E F G H I J K L M N O P Q R S T U V W X Y Z