Song name
# A B C D E F G H I J K L M N O P Q R S T U V W X Y Z

Brown Bird - Ebb And Flow tab

                            Ebb and Flow
                             Brown Bird
This song is meant for banjo, but this is the guitar tab. It's incredibly simple.

E--------------------------------------------------------------------------|
B--------------------------------------------------------------------------|
G------0--2--2/4--2--0---------------------------0-------------------------|
D---2-------------------2----2--0--2----2--0--2----------------------------|
A--------------------------------------------------------------------------|
E--------------------------------------------------------------------------|

E--------------------------------------------------------------------------|
B--------------------------------------------------------------------------|
G------0--2--2/4--2--0-----------------------------------------------------|
D---2-------------------2----2--0--2----2--0--2----------------------------|
A--------------------------------------------------------------------------|
E--------------------------------------------------------------------------|

Repeat ad nauseum

Enjoy!
Tap to rate this tab
# A B C D E F G H I J K L M N O P Q R S T U V W X Y Z