Guitaretab - guitar tabs
Song name
# A B C D E F G H I J K L M N O P Q R S T U V W X Y Z

Brown Brigade - Purebread tab

-------------------------------------------------------------------------------
			     PUREBREAD - Brown Brigade
-------------------------------------------------------------------------------
Tabbed by: fps0alan
Email: distortion-freak@live.ca
[ Tab from: http://www.guitaretab.com/b/brown-brigade/99176.html ]
Tuning: Standard
This is my first tab, this song is a bit difficult good luck playing it!
Both guitars
e|--------------------------------------------------------|  \
B|-----------------------------------------3--------------|   |
G|-----------------3h4p3---------------2-4----------------|   | 
D|--2-2-2-2--2--2--------5-4h5p4---5-4--------2-----------|   |     
A|--2-2-2-2--2--2----------------3------------2-----------|   |     
E|--0-0-0-0--0--0-----------------------------0-----------|   |    
PM    . . .                                                    \  X2
Both guitars                                                   /
e|--------------------------------------------------------|   |  
B|--------------------------------------------------------|   |  
G|-----------------3h4p3---------------2------------------|   |   
D|--2-2-2-2--2--2--------5-4h5p4---5-4---4-2--------------|   |    
A|--2-2-2-2--2--2----------------3-----------5------------|   |   
E|--0-0-0-0--0--0-----------------------------------------|   /   
PM    . . .        

e|--------------------------------------------------------|
B|--------------------------------------------------------|
G|--------------77777-22-4\7------------------------------|
D|--22222-55555-77777-22-x-x------------------------------|
A|--22222-55555-55555-00-2\5------------------------------|
E|--00000-33333-------------------------------------------|

e|--------------------------------------------------------|
B|--------------------------------------------------------|
G|--------------77777-22222-------------------------------|
D|--22222-55555-77777-22222-------------------------------|
A|--22222-55555-55555-00000-------------------------------|
E|--00000-33333-------------------------------------------|


| /  slide up
| \  slide down
| h  hammer-on
| p  pull-off
| ~  vibrato
| +  harmonic
| x  Mute note
===============================================================================
Related for Purebread tab