Song name
# A B C D E F G H I J K L M N O P Q R S T U V W X Y Z

Brown Recluse - Jim Choinard Song tab

Band:Brown recluse
Song:The Jim choinard song demo(The jim choinard dancing remix)
Tabbbed by metalcools (metalcools@yahoo.com)

The song is dedacatied to jim choinard.It was writen by Chris Houlihan
(bass)for
those who don't no.This is not one of there real songs on a cd or tape.But it
is a song that chris wrote for fun.Jim was made 1 part guitar and 1 part sound.
Legend says he is the guitar profhet.Sent by old died guitar players to remake
rock.

h-hammer on

    figure 1 x2
e|-------------------------------------------------
B|-------------------------------------------------
G|-------------------------------------------------
D|--------3h5-0------3h5-0------3h5-0--5h7-0--1h3-0
A|-----5----------5----------5---------------------
E|--3----------3----------3------------------------

    figure 2 x1
e|-------------------------------------------------
B|-------------------------------------------------
G|-------------------------------------------------
D|-------------------------------------------------
A|--7-7---7-7---1----------------------------------
E|--5-5---5-5---1----------------------------------


    Figure 3  u can add a extra 0 at tthe end of each thing if u want
e|-------------------------------------------------
B|-------------------------------------------------
G|------------------2-----2------------------------
D|------2-----0---2-----2--------------------------
A|----2-----2---0-----0----------------------------
E|--0-----3----------------------------------------

    
    figure 4 strum
e|--0--0--0--0--0--0--0--0--0--0--0--0
B|--0--0--0--0--0--0--0--0--0--0--0--0
G|--0--0--0--0--0--0--2--2--2--2--2--2
D|--2--2--2--0--0--0--2--2--2--2--2--2
A|--2--2--2--2--2--2--0--0--0--0--0--0
E|--0--0--0--3--3--3--0--0--0--0--0--0
Tap to rate this tab
# A B C D E F G H I J K L M N O P Q R S T U V W X Y Z