Song name
# A B C D E F G H I J K L M N O P Q R S T U V W X Y Z

Browne Jackson - Road tab

this is road by nick drake. the other tab on this site isn't as acurate I thought. so 
is how I like to play. hope you like it, please rate!

fingerpicking
Tuning EADEBE capo 3rd fret

Main pattern:

 |-------0---------|-------(0)-------|
 |----0---0--------|-----0-----------|
 |---0-0------0---0|---0--0-----0--0-|
 |--2---2--2-2---2-|--2----2---2--2--|
 |-5--------4--02--|-0--0---0--------|
 |0----------------|5--------h4--0--0|

2nd bit:

 |-----------------|------------------|
 |-----------------|------------------|
 |----0----0---0---|---0--------------|
 |0-0----0---0---0-|-0----0-0-0-2-----|
 |---0--2-0-----2--|--0--2-0------2---|
 |-2---0----2-0---0|2---0----2-0----0-|

|----------------|------------|
|----------------|------------|
|---0----0-----0-|---0--------|
|-0----0---0-0---|-0----0-0-0-|
|--0--2-0-----2--|--0--2-0----|
|2---0----2-0---0|2---0----2-0|

3rd bit:

|----------------|-------0--------|
|-----0-------0--|----0---0-------|
|--0---0---0---0-|---0-0--------0-|
|---0---0---0---0|--2---2--2-2-2-2|
|-2--2----2--2---|-0--------------|
|5-------5-------|5---------4-0---|
Tap to rate this tab
# A B C D E F G H I J K L M N O P Q R S T U V W X Y Z