Guitaretab - guitar tabs
Song name
# A B C D E F G H I J K L M N O P Q R S T U V W X Y Z

Browne Jackson - Something Fine tab


Date: Fri, 17 Oct 1997 20:17:44 -0700
From: Maria Magisano 
Subject: ADD:Jackson Browne-"Something Fine"

The original is fine, but to play along with the album you must tune 
down a 1/2 step.

So, the correct tuning is D# F# C# f# a# d#

Something Fine
by Jackson Browne

Tuning: Drop fifth string from A to G(EGDGBE)
Finger pick throughout.

Chords Used:
      G    G9   C/G    A7/G                                  
E ---3------1------0--------0-----                           
B ---0------0------1--------2-----                           
G ---4------2------0--------0-----                           
D ---0------0------2--------2-----                           
G ---0------0------0--------0-----                           
E -----------------------------------                           

Gmaj7  Em    G*      G**


E ---------------------------------2---------------      
B --------------0--------------------3------------     
G ---2s4----------2--0------0------------2s4-    
D ---------0-------------2------------------------      
G ---0-----------------------------0------0------       
E -------------------------------------------------       

E  --------------------------------3---
B --3--0----0---------------------0---
G  --------------2---0------0-----4---
D  ----------------------2---------0---
G  --------------------------------0---
E  -------------------------------------

The papers lie there helplessly,
 in a pile outside my door,

I tried and tried, but I just can't
 remember what they're for.
The world outside is tugging like
 a beggar at my sleeve,
                G*                   C/G               G*
Oh that's much too old a story to believe.
               Gmaj7                           C/G
And you know that it's taken it's share of me,
              Em                                C/G        G** 
Even though you take such good care of me .
Gmaj7                                   C/G
Now you say Morocco, and that makes me smile,
I haven't seen  Morocco in a long, long while.
The dreams are rolling down across
 the places in my mind,
                                                          G** C/G  G**
And I've just had a taste of something fine.

The future hides and the past just slides, 
England lies between,
Floating in a silver mist so cold and so clean.
California's shaking like an angry child will,
Who has asked for love and is unanswered still.
And you know that I'm looking back carefully,
Cause I know that there's still something there for me.
But you said Morocco, and that made me smile,
It hasn't been that easy for a long, long while,
And looking back into your eyes,
 I saw them really shine,
Giving me a taste of something fine,

                  Gmaj7  C/G   D/G   Em   C/G   G**  
Something Fine----------------------------

Gmaj7                                  C/G
Now if you see Morocco, I know you'll go in style
I may not see Morocco, for a little while.
And while you're there I was hoping you might
 keep it in your mind,
to save me just a taste of something fine.

           C/G   G**
[ Tab from: ]
Related for Something Fine tab